  0
SECTION
  2
HEADER
  9
$ACADVER
  1
AC1024
  9
$ACADMAINTVER
 70
     6
  9
$DWGCODEPAGE
  3
UNDEFINED
  9
$INSBASE
 10
0.0
 20
0.0
 30
0.0
  9
$EXTMIN
 10
1.000000000000000E+20
 20
1.000000000000000E+20
 30
1.000000000000000E+20
  9
$EXTMAX
 10
-1.000000000000000E+20
 20
-1.000000000000000E+20
 30
-1.000000000000000E+20
  9
$LIMMIN
 10
0.0
 20
0.0
  9
$LIMMAX
 10
12.0
 20
9.0
  9
$ORTHOMODE
 70
     0
  9
$REGENMODE
 70
     1
  9
$FILLMODE
 70
     1
  9
$QTEXTMODE
 70
     0
  9
$MIRRTEXT
 70
     1
  9
$LTSCALE
 40
1.0
  9
$ATTMODE
 70
     1
  9
$TEXTSIZE
 40
0.2
  9
$TRACEWID
 40
0.05
  9
$TEXTSTYLE
  7
Standard
  9
$CLAYER
  8
0
  9
$CELTYPE
  6
ByLayer
  9
$CECOLOR
 62
   256
  9
$CELTSCALE
 40
1.0
  9
$DISPSILH
 70
     0
  9
$DIMSCALE
 40
1.0
  9
$DIMASZ
 40
0.18
  9
$DIMEXO
 40
0.0625
  9
$DIMDLI
 40
0.38
  9
$DIMRND
 40
0.0
  9
$DIMDLE
 40
0.0
  9
$DIMEXE
 40
0.18
  9
$DIMTP
 40
0.0
  9
$DIMTM
 40
0.0
  9
$DIMTXT
 40
0.18
  9
$DIMCEN
 40
0.09
  9
$DIMTSZ
 40
0.0
  9
$DIMTOL
 70
     0
  9
$DIMLIM
 70
     0
  9
$DIMTIH
 70
     1
  9
$DIMTOH
 70
     1
  9
$DIMSE1
 70
     0
  9
$DIMSE2
 70
     0
  9
$DIMTAD
 70
     0
  9
$DIMZIN
 70
     0
  9
$DIMBLK
  1

  9
$DIMASO
 70
     1
  9
$DIMSHO
 70
     1
  9
$DIMPOST
  1

  9
$DIMAPOST
  1

  9
$DIMALT
 70
     0
  9
$DIMALTD
 70
     2
  9
$DIMALTF
 40
25.4
  9
$DIMLFAC
 40
1.0
  9
$DIMTOFL
 70
     0
  9
$DIMTVP
 40
0.0
  9
$DIMTIX
 70
     0
  9
$DIMSOXD
 70
     0
  9
$DIMSAH
 70
     0
  9
$DIMBLK1
  1

  9
$DIMBLK2
  1

  9
$DIMSTYLE
  2
Standard
  9
$DIMCLRD
 70
     0
  9
$DIMCLRE
 70
     0
  9
$DIMCLRT
 70
     0
  9
$DIMTFAC
 40
1.0
  9
$DIMGAP
 40
0.09
  9
$DIMJUST
 70
     0
  9
$DIMSD1
 70
     0
  9
$DIMSD2
 70
     0
  9
$DIMTOLJ
 70
     1
  9
$DIMTZIN
 70
     0
  9
$DIMALTZ
 70
     0
  9
$DIMALTTZ
 70
     0
  9
$DIMUPT
 70
     0
  9
$DIMDEC
 70
     4
  9
$DIMTDEC
 70
     4
  9
$DIMALTU
 70
     2
  9
$DIMALTTD
 70
     2
  9
$DIMTXSTY
  7
Standard
  9
$DIMAUNIT
 70
     0
  9
$DIMADEC
 70
     0
  9
$DIMALTRND
 40
0.0
  9
$DIMAZIN
 70
     0
  9
$DIMDSEP
 70
    46
  9
$DIMATFIT
 70
     3
  9
$DIMFRAC
 70
     0
  9
$DIMLDRBLK
  1

  9
$DIMLUNIT
 70
     2
  9
$DIMLWD
 70
    -2
  9
$DIMLWE
 70
    -2
  9
$DIMTMOVE
 70
     0
  9
$DIMFXL
 40
1.0
  9
$DIMFXLON
 70
     0
  9
$DIMJOGANG
 40
0.7853981633974483
  9
$DIMTFILL
 70
     0
  9
$DIMTFILLCLR
 70
     0
  9
$DIMARCSYM
 70
     0
  9
$DIMLTYPE
  6

  9
$DIMLTEX1
  6

  9
$DIMLTEX2
  6

  9
$DIMTXTDIRECTION
 70
     0
  9
$LUNITS
 70
     2
  9
$LUPREC
 70
     4
  9
$SKETCHINC
 40
0.1
  9
$FILLETRAD
 40
0.5
  9
$AUNITS
 70
     0
  9
$AUPREC
 70
     0
  9
$MENU
  1
.
  9
$ELEVATION
 40
0.0
  9
$PELEVATION
 40
0.0
  9
$THICKNESS
 40
0.0
  9
$LIMCHECK
 70
     0
  9
$CHAMFERA
 40
0.5
  9
$CHAMFERB
 40
0.5
  9
$CHAMFERC
 40
1.0
  9
$CHAMFERD
 40
0.0
  9
$SKPOLY
 70
     0
  9
$TDCREATE
 40
2458373.4282986
  9
$TDUCREATE
 40
2458373.386631944
  9
$TDUPDATE
 40
2458373.428310185
  9
$TDUUPDATE
 40
2458373.386643519
  9
$TDINDWG
 40
0.0000000116
  9
$TDUSRTIMER
 40
0.0000000116
  9
$USRTIMER
 70
     1
  9
$ANGBASE
 50
0.0
  9
$ANGDIR
 70
     0
  9
$PDMODE
 70
     0
  9
$PDSIZE
 40
0.0
  9
$PLINEWID
 40
0.0
  9
$SPLFRAME
 70
     0
  9
$SPLINETYPE
 70
     6
  9
$SPLINESEGS
 70
     8
  9
$HANDSEED
  5
CB
  9
$SURFTAB1
 70
     6
  9
$SURFTAB2
 70
     6
  9
$SURFTYPE
 70
     6
  9
$SURFU
 70
     6
  9
$SURFV
 70
     6
  9
$UCSBASE
  2

  9
$UCSNAME
  2

  9
$UCSORG
 10
0.0
 20
0.0
 30
0.0
  9
$UCSXDIR
 10
1.0
 20
0.0
 30
0.0
  9
$UCSYDIR
 10
0.0
 20
1.0
 30
0.0
  9
$UCSORTHOREF
  2

  9
$UCSORTHOVIEW
 70
     0
  9
$UCSORGTOP
 10
0.0
 20
0.0
 30
0.0
  9
$UCSORGBOTTOM
 10
0.0
 20
0.0
 30
0.0
  9
$UCSORGLEFT
 10
0.0
 20
0.0
 30
0.0
  9
$UCSORGRIGHT
 10
0.0
 20
0.0
 30
0.0
  9
$UCSORGFRONT
 10
0.0
 20
0.0
 30
0.0
  9
$UCSORGBACK
 10
0.0
 20
0.0
 30
0.0
  9
$PUCSBASE
  2

  9
$PUCSNAME
  2

  9
$PUCSORG
 10
0.0
 20
0.0
 30
0.0
  9
$PUCSXDIR
 10
1.0
 20
0.0
 30
0.0
  9
$PUCSYDIR
 10
0.0
 20
1.0
 30
0.0
  9
$PUCSORTHOREF
  2

  9
$PUCSORTHOVIEW
 70
     0
  9
$PUCSORGTOP
 10
0.0
 20
0.0
 30
0.0
  9
$PUCSORGBOTTOM
 10
0.0
 20
0.0
 30
0.0
  9
$PUCSORGLEFT
 10
0.0
 20
0.0
 30
0.0
  9
$PUCSORGRIGHT
 10
0.0
 20
0.0
 30
0.0
  9
$PUCSORGFRONT
 10
0.0
 20
0.0
 30
0.0
  9
$PUCSORGBACK
 10
0.0
 20
0.0
 30
0.0
  9
$USERI1
 70
     0
  9
$USERI2
 70
     0
  9
$USERI3
 70
     0
  9
$USERI4
 70
     0
  9
$USERI5
 70
     0
  9
$USERR1
 40
0.0
  9
$USERR2
 40
0.0
  9
$USERR3
 40
0.0
  9
$USERR4
 40
0.0
  9
$USERR5
 40
0.0
  9
$WORLDVIEW
 70
     1
  9
$SHADEDGE
 70
     3
  9
$SHADEDIF
 70
    70
  9
$TILEMODE
 70
     1
  9
$MAXACTVP
 70
    64
  9
$PINSBASE
 10
0.0
 20
0.0
 30
0.0
  9
$PLIMCHECK
 70
     0
  9
$PEXTMIN
 10
1.000000000000000E+20
 20
1.000000000000000E+20
 30
1.000000000000000E+20
  9
$PEXTMAX
 10
-1.000000000000000E+20
 20
-1.000000000000000E+20
 30
-1.000000000000000E+20
  9
$PLIMMIN
 10
0.0
 20
0.0
  9
$PLIMMAX
 10
12.0
 20
9.0
  9
$UNITMODE
 70
     0
  9
$VISRETAIN
 70
     1
  9
$PLINEGEN
 70
     0
  9
$PSLTSCALE
 70
     1
  9
$TREEDEPTH
 70
  3020
  9
$CMLSTYLE
  2
Standard
  9
$CMLJUST
 70
     0
  9
$CMLSCALE
 40
1.0
  9
$PROXYGRAPHICS
 70
     1
  9
$MEASUREMENT
 70
     0
  9
$CELWEIGHT
370
    -1
  9
$ENDCAPS
280
     0
  9
$JOINSTYLE
280
     0
  9
$LWDISPLAY
290
     1
  9
$INSUNITS
 70
     1
  9
$HYPERLINKBASE
  1

  9
$STYLESHEET
  1

  9
$XEDIT
290
     1
  9
$CEPSNTYPE
380
     0
  9
$PSTYLEMODE
290
     1
  9
$FINGERPRINTGUID
  2
{7D0877D1-09A9-E1A0-1C54-7F3BCA11D5AE}
  9
$VERSIONGUID
  2
{FAEB1C32-E019-11D5-929B-00C0DF256EC4}
  9
$EXTNAMES
290
     1
  9
$PSVPSCALE
 40
0.0
  9
$OLESTARTUP
290
     0
  9
$SORTENTS
280
   127
  9
$INDEXCTL
280
     0
  9
$HIDETEXT
280
     1
  9
$XCLIPFRAME
280
     2
  9
$HALOGAP
280
     0
  9
$OBSCOLOR
 70
   257
  9
$OBSLTYPE
280
     0
  9
$INTERSECTIONDISPLAY
280
     0
  9
$INTERSECTIONCOLOR
 70
   257
  9
$DIMASSOC
280
     2
  9
$PROJECTNAME
  1

  9
$CAMERADISPLAY
290
     0
  9
$LENSLENGTH
 40
50.0
  9
$CAMERAHEIGHT
 40
0.0
  9
$STEPSPERSEC
 40
2.0
  9
$STEPSIZE
 40
6.0
  9
$3DDWFPREC
 40
2.0
  9
$PSOLWIDTH
 40
0.25
  9
$PSOLHEIGHT
 40
4.0
  9
$LOFTANG1
 40
1.570796326794897
  9
$LOFTANG2
 40
1.570796326794897
  9
$LOFTMAG1
 40
0.0
  9
$LOFTMAG2
 40
0.0
  9
$LOFTPARAM
 70
     7
  9
$LOFTNORMALS
280
     1
  9
$LATITUDE
 40
37.795
  9
$LONGITUDE
 40
-122.394
  9
$NORTHDIRECTION
 40
0.0
  9
$TIMEZONE
 70
 -8000
  9
$LIGHTGLYPHDISPLAY
280
     1
  9
$TILEMODELIGHTSYNCH
280
     1
  9
$CMATERIAL
347
3C
  9
$SOLIDHIST
280
     1
  9
$SHOWHIST
280
     1
  9
$DWFFRAME
280
     2
  9
$DGNFRAME
280
     2
  9
$REALWORLDSCALE
290
     1
  9
$INTERFERECOLOR
 62
   256
  9
$CSHADOW
280
     0
  9
$SHADOWPLANELOCATION
 40
0.0
  0
ENDSEC
  0
SECTION
  2
CLASSES
  0
CLASS
  1
ACDBDICTIONARYWDFLT
  2
AcDbDictionaryWithDefault
  3
ObjectDBX Classes
 90
        0
 91
        4
280
     0
281
     0
  0
CLASS
  1
VISUALSTYLE
  2
AcDbVisualStyle
  3
ObjectDBX Classes
 90
     4095
 91
        4
280
     0
281
     0
  0
CLASS
  1
MATERIAL
  2
AcDbMaterial
  3
ObjectDBX Classes
 90
     1153
 91
        4
280
     0
281
     0
  0
CLASS
  1
SUN
  2
AcDbSun
  3
SCENEOE
 90
     1024
 91
        4
280
     0
281
     0
  0
ENDSEC
  0
SECTION
  2
TABLES
  0
TABLE
  2
VPORT
  5
8
330
0
100
AcDbSymbolTable
 70
     1
  0
VPORT
  5
29
330
8
100
AcDbSymbolTableRecord
100
AcDbViewportTableRecord
  2
*Active
 70
     0
 10
0.0
 20
0.0
 11
1.0
 21
1.0
 12
0.0
 22
0.0
 13
0.0
 23
0.0
 14
0.5
 24
0.5
 15
0.5
 25
0.5
 16
0.0
 26
0.0
 36
1.0
 17
144.999999963752
 27
-104.9999999737534
 37
0.0
 40
209.9999999475068
 41
1.380952380952355
 42
50.0
 43
0.0
 44
0.0
 50
0.0
 51
0.0
 71
     0
 72
   100
 73
     1
 74
     3
 75
     0
 76
     0
 77
     0
 78
     0
281
     0
 65
     1
110
0.0
120
0.0
130
0.0
111
1.0
121
0.0
131
0.0
112
0.0
122
1.0
132
0.0
 79
     0
146
0.0
 60
     3
 61
     5
292
     1
282
     1
141
0.0
142
0.0
 63
   250
361
3F
  0
ENDTAB
  0
TABLE
  2
LTYPE
  5
5
330
0
100
AcDbSymbolTable
 70
     1
  0
LTYPE
  5
14
330
5
100
AcDbSymbolTableRecord
100
AcDbLinetypeTableRecord
  2
ByBlock
 70
     0
  3

 72
    65
 73
     0
 40
0.0
  0
LTYPE
  5
15
330
5
100
AcDbSymbolTableRecord
100
AcDbLinetypeTableRecord
  2
ByLayer
 70
     0
  3

 72
    65
 73
     0
 40
0.0
  0
LTYPE
  5
16
330
5
100
AcDbSymbolTableRecord
100
AcDbLinetypeTableRecord
  2
Continuous
 70
     0
  3
Solid line
 72
    65
 73
     0
 40
0.0
  0
ENDTAB
  0
TABLE
  2
LAYER
  5
2
330
0
100
AcDbSymbolTable
 70
     2
  0
LAYER
  5
10
330
2
100
AcDbSymbolTableRecord
100
AcDbLayerTableRecord
  2
0
 70
     0
 62
     7
  6
Continuous
370
    -3
390
F
347
3E
  0
LAYER
  5
40
330
2
100
AcDbSymbolTableRecord
100
AcDbLayerTableRecord
  2
Calque 1
 70
     0
 62
     7
  6
Continuous
370
    -3
390
F
347
3E
  0
ENDTAB
  0
TABLE
  2
STYLE
  5
3
330
0
100
AcDbSymbolTable
 70
     1
  0
STYLE
  5
11
330
3
100
AcDbSymbolTableRecord
100
AcDbTextStyleTableRecord
  2
Standard
 70
     0
 40
0.0
 41
1.0
 50
0.0
 71
     0
 42
0.2
  3
txt
  4

  0
ENDTAB
  0
TABLE
  2
VIEW
  5
6
330
0
100
AcDbSymbolTable
 70
     0
  0
ENDTAB
  0
TABLE
  2
UCS
  5
7
330
0
100
AcDbSymbolTable
 70
     0
  0
ENDTAB
  0
TABLE
  2
APPID
  5
9
330
0
100
AcDbSymbolTable
 70
     1
  0
APPID
  5
12
330
9
100
AcDbSymbolTableRecord
100
AcDbRegAppTableRecord
  2
ACAD
 70
     0
  0
ENDTAB
  0
TABLE
  2
DIMSTYLE
  5
A
330
0
100
AcDbSymbolTable
 70
     1
100
AcDbDimStyleTable
  0
DIMSTYLE
105
27
330
A
100
AcDbSymbolTableRecord
100
AcDbDimStyleTableRecord
  2
Standard
 70
     0
178
     0
340
11
  0
ENDTAB
  0
TABLE
  2
BLOCK_RECORD
  5
1
330
0
100
AcDbSymbolTable
 70
     1
  0
BLOCK_RECORD
  5
1F
330
1
100
AcDbSymbolTableRecord
100
AcDbBlockTableRecord
  2
*Model_Space
340
22
 70
     0
280
     1
281
     0
  0
BLOCK_RECORD
  5
1B
330
1
100
AcDbSymbolTableRecord
100
AcDbBlockTableRecord
  2
*Paper_Space
340
1E
 70
     0
280
     1
281
     0
  0
BLOCK_RECORD
  5
23
330
1
100
AcDbSymbolTableRecord
100
AcDbBlockTableRecord
  2
*Paper_Space0
340
26
 70
     0
280
     1
281
     0
  0
ENDTAB
  0
ENDSEC
  0
SECTION
  2
BLOCKS
  0
BLOCK
  5
20
330
1F
100
AcDbEntity
  8
0
100
AcDbBlockBegin
  2
*Model_Space
 70
     0
 10
0.0
 20
0.0
 30
0.0
  3
*Model_Space
  1

  0
ENDBLK
  5
21
330
1F
100
AcDbEntity
  8
0
100
AcDbBlockEnd
  0
BLOCK
  5
1C
330
1B
100
AcDbEntity
 67
     1
  8
0
100
AcDbBlockBegin
  2
*Paper_Space
 70
     0
 10
0.0
 20
0.0
 30
0.0
  3
*Paper_Space
  1

  0
ENDBLK
  5
1D
330
1B
100
AcDbEntity
 67
     1
  8
0
100
AcDbBlockEnd
  0
BLOCK
  5
24
330
23
100
AcDbEntity
  8
0
100
AcDbBlockBegin
  2
*Paper_Space0
 70
     0
 10
0.0
 20
0.0
 30
0.0
  3
*Paper_Space0
  1

  0
ENDBLK
  5
25
330
23
100
AcDbEntity
  8
0
100
AcDbBlockEnd
  0
ENDSEC
  0
SECTION
  2
ENTITIES
  0
SPLINE
  5
41
330
1F
100
AcDbEntity
  8
Calque 1
 62
     7
370
    25
100
AcDbSpline
210
0.0
220
0.0
230
1.0
 70
     8
 71
     3
 72
    14
 73
    10
 74
     0
 42
0.0000000001
 43
0.0000000001
 12
1.0
 22
0.0
 32
0.0
 13
1.0
 23
0.0
 33
0.0
 40
0.0
 40
0.0
 40
0.0
 40
0.0
 40
1.0
 40
1.0
 40
1.0
 40
2.0
 40
2.0
 40
2.0
 40
3.0
 40
3.0
 40
3.0
 40
3.0
 10
178.8452928156074
 20
-85.36817751635816
 30
0.0
 10
184.2532293483191
 20
-86.46703318219559
 30
0.0
 10
189.5280266297464
 20
-82.97383294645527
 30
0.0
 10
190.6268822955688
 20
-77.56589641374264
 30
0.0
 10
191.7257379614078
 20
-72.15795988103127
 30
0.0
 10
188.2325377256656
 20
-66.88316259960328
 30
0.0
 10
182.8246011929385
 20
-65.78430693376585
 30
0.0
 10
181.6196829792527
 20
-65.53947580493184
 30
0.0
 10
180.379925336826
 20
-65.51913299801325
 30
0.0
 10
179.1676232290152
 20
-65.72430069215578
 30
0.0
  0
SPLINE
  5
42
330
1F
100
AcDbEntity
  8
Calque 1
 62
     7
370
    25
100
AcDbSpline
210
0.0
220
0.0
230
1.0
 70
     8
 71
     3
 72
     8
 73
     4
 74
     0
 42
0.0000000001
 43
0.0000000001
 12
1.0
 22
0.0
 32
0.0
 13
1.0
 23
0.0
 33
0.0
 40
0.0
 40
0.0
 40
0.0
 40
0.0
 40
1.0
 40
1.0
 40
1.0
 40
1.0
 10
145.1649688950215
 20
-75.95681314998686
 30
0.0
 10
147.4265661596004
 20
-75.85855722300879
 30
0.0
 10
149.6787249019207
 20
-75.60483176287563
 30
0.0
 10
151.9054945942344
 20
-75.19743373667141
 30
0.0
  0
SPLINE
  5
43
330
1F
100
AcDbEntity
  8
Calque 1
 62
     7
370
    25
100
AcDbSpline
210
0.0
220
0.0
230
1.0
 70
     8
 71
     3
 72
     8
 73
     4
 74
     0
 42
0.0000000001
 43
0.0000000001
 12
1.0
 22
0.0
 32
0.0
 13
1.0
 23
0.0
 33
0.0
 40
0.0
 40
0.0
 40
0.0
 40
0.0
 40
1.0
 40
1.0
 40
1.0
 40
1.0
 10
180.8349470042723
 20
-65.58420937187391
 30
0.0
 10
176.7428500864567
 20
-65.79629741015496
 30
0.0
 10
172.7580913872806
 20
-66.96839054719649
 30
0.0
 10
169.2028766076558
 20
-69.00571388714056
 30
0.0
  0
SPLINE
  5
44
330
1F
100
AcDbEntity
  8
Calque 1
 62
     7
370
    25
100
AcDbSpline
210
0.0
220
0.0
230
1.0
 70
     8
 71
     3
 72
     8
 73
     4
 74
     0
 42
0.0000000001
 43
0.0000000001
 12
1.0
 22
0.0
 32
0.0
 13
1.0
 23
0.0
 33
0.0
 40
0.0
 40
0.0
 40
0.0
 40
0.0
 40
1.0
 40
1.0
 40
1.0
 40
1.0
 10
161.0868639953688
 20
-72.76396454664606
 30
0.0
 10
163.8584023656935
 20
-71.65943404687503
 30
0.0
 10
166.5677495219946
 20
-70.404827108289
 30
0.0
 10
169.2028766076392
 20
-69.00571388714056
 30
0.0
  0
SPLINE
  5
45
330
1F
100
AcDbEntity
  8
Calque 1
 62
     7
370
    25
100
AcDbSpline
210
0.0
220
0.0
230
1.0
 70
     8
 71
     3
 72
     8
 73
     4
 74
     0
 42
0.0000000001
 43
0.0000000001
 12
1.0
 22
0.0
 32
0.0
 13
1.0
 23
0.0
 33
0.0
 40
0.0
 40
0.0
 40
0.0
 40
0.0
 40
1.0
 40
1.0
 40
1.0
 40
1.0
 10
151.9054945942344
 20
-75.19743373667141
 30
0.0
 10
155.0251912488615
 20
-74.62902294620963
 30
0.0
 10
158.0951747376741
 20
-73.81534146716683
 30
0.0
 10
161.0868639953688
 20
-72.76396454664606
 30
0.0
  0
SPLINE
  5
46
330
1F
100
AcDbEntity
  8
Calque 1
 62
     7
370
    25
100
AcDbSpline
210
0.0
220
0.0
230
1.0
 70
     8
 71
     3
 72
     8
 73
     4
 74
     0
 42
0.0000000001
 43
0.0000000001
 12
1.0
 22
0.0
 32
0.0
 13
1.0
 23
0.0
 33
0.0
 40
0.0
 40
0.0
 40
0.0
 40
0.0
 40
1.0
 40
1.0
 40
1.0
 40
1.0
 10
180.940581957286
 20
-85.56771668062743
 30
0.0
 10
169.051072290409
 20
-84.40096409920025
 30
0.0
 10
157.111589822074
 20
-83.81672057108736
 30
0.0
 10
145.1649688950215
 20
-83.81708214092387
 30
0.0
  0
SPLINE
  5
47
330
1F
100
AcDbEntity
  8
Calque 1
 62
     7
370
    25
100
AcDbSpline
210
0.0
220
0.0
230
1.0
 70
     8
 71
     3
 72
    14
 73
    10
 74
     0
 42
0.0000000001
 43
0.0000000001
 12
1.0
 22
0.0
 32
0.0
 13
1.0
 23
0.0
 33
0.0
 40
0.0
 40
0.0
 40
0.0
 40
0.0
 40
1.0
 40
1.0
 40
1.0
 40
2.0
 40
2.0
 40
2.0
 40
3.0
 40
3.0
 40
3.0
 40
3.0
 10
111.1623145610309
 20
-65.72430069215578
 30
0.0
 10
105.7212374961786
 20
-64.80346319804332
 30
0.0
 10
100.5638867469654
 20
-68.46784138495522
 30
0.0
 10
99.6430492528516
 20
-73.90891844980592
 30
0.0
 10
98.72221175875421
 20
-79.3499955146563
 30
0.0
 10
102.3865899456671
 20
-84.50734626388785
 30
0.0
 10
107.8276670105191
 20
-85.42818375798299
 30
0.0
 10
109.0399691183292
 20
-85.63335145212744
 30
0.0
 10
110.279726760753
 20
-85.61300864520854
 30
0.0
 10
111.4846449744391
 20
-85.36817751637484
 30
0.0
  0
SPLINE
  5
48
330
1F
100
AcDbEntity
  8
Calque 1
 62
     7
370
    25
100
AcDbSpline
210
0.0
220
0.0
230
1.0
 70
     8
 71
     3
 72
     8
 73
     4
 74
     0
 42
0.0000000001
 43
0.0000000001
 12
1.0
 22
0.0
 32
0.0
 13
1.0
 23
0.0
 33
0.0
 40
0.0
 40
0.0
 40
0.0
 40
0.0
 40
1.0
 40
1.0
 40
1.0
 40
1.0
 10
138.4244431958118
 20
-75.19743373667141
 30
0.0
 10
140.6512128881271
 20
-75.60483176289199
 30
0.0
 10
142.9033716304449
 20
-75.85855722300879
 30
0.0
 10
145.1649688950215
 20
-75.95681314998686
 30
0.0
  0
SPLINE
  5
49
330
1F
100
AcDbEntity
  8
Calque 1
 62
     7
370
    25
100
AcDbSpline
210
0.0
220
0.0
230
1.0
 70
     8
 71
     3
 72
     8
 73
     4
 74
     0
 42
0.0000000001
 43
0.0000000001
 12
1.0
 22
0.0
 32
0.0
 13
1.0
 23
0.0
 33
0.0
 40
0.0
 40
0.0
 40
0.0
 40
0.0
 40
1.0
 40
1.0
 40
1.0
 40
1.0
 10
121.127061182407
 20
-69.00571388714056
 30
0.0
 10
117.5718464027492
 20
-66.96839054719649
 30
0.0
 10
113.5870877035911
 20
-65.79629741015496
 30
0.0
 10
109.4949907857742
 20
-65.58420937187391
 30
0.0
  0
SPLINE
  5
4A
330
1F
100
AcDbEntity
  8
Calque 1
 62
     7
370
    25
100
AcDbSpline
210
0.0
220
0.0
230
1.0
 70
     8
 71
     3
 72
     8
 73
     4
 74
     0
 42
0.0000000001
 43
0.0000000001
 12
1.0
 22
0.0
 32
0.0
 13
1.0
 23
0.0
 33
0.0
 40
0.0
 40
0.0
 40
0.0
 40
0.0
 40
1.0
 40
1.0
 40
1.0
 40
1.0
 10
121.127061182407
 20
-69.00571388714056
 30
0.0
 10
123.7621882680352
 20
-70.404827108289
 30
0.0
 10
126.4715354243526
 20
-71.65943404689106
 30
0.0
 10
129.2430737946783
 20
-72.76396454664606
 30
0.0
  0
SPLINE
  5
4B
330
1F
100
AcDbEntity
  8
Calque 1
 62
     7
370
    25
100
AcDbSpline
210
0.0
220
0.0
230
1.0
 70
     8
 71
     3
 72
     8
 73
     4
 74
     0
 42
0.0000000001
 43
0.0000000001
 12
1.0
 22
0.0
 32
0.0
 13
1.0
 23
0.0
 33
0.0
 40
0.0
 40
0.0
 40
0.0
 40
0.0
 40
1.0
 40
1.0
 40
1.0
 40
1.0
 10
129.2430737946783
 20
-72.76396454664606
 30
0.0
 10
132.2347630523723
 20
-73.81534146716683
 30
0.0
 10
135.304746541185
 20
-74.62902294620963
 30
0.0
 10
138.4244431958118
 20
-75.19743373667141
 30
0.0
  0
SPLINE
  5
4C
330
1F
100
AcDbEntity
  8
Calque 1
 62
     7
370
    25
100
AcDbSpline
210
0.0
220
0.0
230
1.0
 70
     8
 71
     3
 72
     8
 73
     4
 74
     0
 42
0.0000000001
 43
0.0000000001
 12
1.0
 22
0.0
 32
0.0
 13
1.0
 23
0.0
 33
0.0
 40
0.0
 40
0.0
 40
0.0
 40
0.0
 40
1.0
 40
1.0
 40
1.0
 40
1.0
 10
145.1649688950215
 20
-83.81708214092387
 30
0.0
 10
133.920334406335
 20
-83.81674181703988
 30
0.0
 10
122.6816511705495
 20
-84.33432204085209
 30
0.0
 10
111.4846449744391
 20
-85.36817751637484
 30
0.0
  0
SPLINE
  5
4D
330
1F
100
AcDbEntity
  8
Calque 1
 62
     7
370
    25
100
AcDbSpline
210
0.0
220
0.0
230
1.0
 70
    11
 71
     3
 72
    17
 73
    13
 74
     0
 42
0.0000000001
 43
0.0000000001
 12
1.0
 22
0.0
 32
0.0
 13
1.0
 23
0.0
 33
0.0
 40
0.0
 40
0.0
 40
0.0
 40
0.0
 40
1.0
 40
1.0
 40
1.0
 40
2.0
 40
2.0
 40
2.0
 40
3.0
 40
3.0
 40
3.0
 40
4.0
 40
4.0
 40
4.0
 40
4.0
 10
178.4655819579434
 20
-75.6495730997609
 30
0.0
 10
178.4655819579434
 20
-74.24988485128377
 30
0.0
 10
179.5736772018271
 20
-73.11521333535283
 30
0.0
 10
180.9405819572821
 20
-73.11521333535283
 30
0.0
 10
182.3074867127564
 20
-73.11521333535283
 30
0.0
 10
183.415581956644
 20
-74.24988485128377
 30
0.0
 10
183.415581956644
 20
-75.6495730997609
 30
0.0
 10
183.415581956644
 20
-77.0492613482146
 30
0.0
 10
182.3074867127564
 20
-78.18393286416959
 30
0.0
 10
180.9405819572821
 20
-78.18393286416959
 30
0.0
 10
179.5736772018271
 20
-78.18393286416959
 30
0.0
 10
178.4655819579434
 20
-77.0492613482146
 30
0.0
 10
178.4655819579434
 20
-75.6495730997609
 30
0.0
  0
SPLINE
  5
4E
330
1F
100
AcDbEntity
  8
Calque 1
 62
     7
370
    25
100
AcDbSpline
210
0.0
220
0.0
230
1.0
 70
    11
 71
     3
 72
    17
 73
    13
 74
     0
 42
0.0000000001
 43
0.0000000001
 12
1.0
 22
0.0
 32
0.0
 13
1.0
 23
0.0
 33
0.0
 40
0.0
 40
0.0
 40
0.0
 40
0.0
 40
1.0
 40
1.0
 40
1.0
 40
2.0
 40
2.0
 40
2.0
 40
3.0
 40
3.0
 40
3.0
 40
4.0
 40
4.0
 40
4.0
 40
4.0
 10
106.9143558334115
 20
-75.6495730997609
 30
0.0
 10
106.9143558334115
 20
-74.24988485127734
 30
0.0
 10
108.0224510772798
 20
-73.11521333534064
 30
0.0
 10
109.3893558327611
 20
-73.11521333534064
 30
0.0
 10
110.7562605882184
 20
-73.11521333534064
 30
0.0
 10
111.8643558321121
 20
-74.24988485127734
 30
0.0
 10
111.8643558321121
 20
-75.6495730997609
 30
0.0
 10
111.8643558321121
 20
-77.04926134822134
 30
0.0
 10
110.7562605882184
 20
-78.18393286418146
 30
0.0
 10
109.3893558327611
 20
-78.18393286418146
 30
0.0
 10
108.0224510772798
 20
-78.18393286418146
 30
0.0
 10
106.9143558334115
 20
-77.04926134822134
 30
0.0
 10
106.9143558334115
 20
-75.6495730997609
 30
0.0
  0
SPLINE
  5
4F
330
1F
100
AcDbEntity
  8
Calque 1
 62
     7
370
    25
100
AcDbSpline
210
0.0
220
0.0
230
1.0
 70
     8
 71
     3
 72
    14
 73
    10
 74
     0
 42
0.0000000001
 43
0.0000000001
 12
1.0
 22
0.0
 32
0.0
 13
1.0
 23
0.0
 33
0.0
 40
0.0
 40
0.0
 40
0.0
 40
0.0
 40
1.0
 40
1.0
 40
1.0
 40
2.0
 40
2.0
 40
2.0
 40
3.0
 40
3.0
 40
3.0
 40
3.0
 10
178.9264953744
 20
-111.5704909763333
 30
0.0
 10
184.3344319071117
 20
-112.6693466421704
 30
0.0
 10
189.609229188539
 20
-109.1761464064308
 30
0.0
 10
190.7080848543614
 20
-103.7682098737178
 30
0.0
 10
191.8069405202004
 20
-98.36027334100645
 30
0.0
 10
188.3137402844582
 20
-93.08547605957845
 30
0.0
 10
182.9058037517311
 20
-91.98662039374102
 30
0.0
 10
181.7008855380453
 20
-91.741789264907
 30
0.0
 10
180.4611278956186
 20
-91.72144645798842
 30
0.0
 10
179.2488257878078
 20
-91.92661415213094
 30
0.0
  0
SPLINE
  5
50
330
1F
100
AcDbEntity
  8
Calque 1
 62
     7
370
    25
100
AcDbSpline
210
0.0
220
0.0
230
1.0
 70
     8
 71
     3
 72
     8
 73
     4
 74
     0
 42
0.0000000001
 43
0.0000000001
 12
1.0
 22
0.0
 32
0.0
 13
1.0
 23
0.0
 33
0.0
 40
0.0
 40
0.0
 40
0.0
 40
0.0
 40
1.0
 40
1.0
 40
1.0
 40
1.0
 10
145.2461714538141
 20
-102.159126609962
 30
0.0
 10
147.5077687183929
 20
-102.060870682984
 30
0.0
 10
149.7599274607133
 20
-101.8071452228508
 30
0.0
 10
151.9866971530269
 20
-101.3997471966466
 30
0.0
  0
SPLINE
  5
51
330
1F
100
AcDbEntity
  8
Calque 1
 62
     7
370
    25
100
AcDbSpline
210
0.0
220
0.0
230
1.0
 70
     8
 71
     3
 72
     8
 73
     4
 74
     0
 42
0.0000000001
 43
0.0000000001
 12
1.0
 22
0.0
 32
0.0
 13
1.0
 23
0.0
 33
0.0
 40
0.0
 40
0.0
 40
0.0
 40
0.0
 40
1.0
 40
1.0
 40
1.0
 40
1.0
 10
180.9161495630649
 20
-91.78652283184907
 30
0.0
 10
176.8240526452493
 20
-91.99861087013012
 30
0.0
 10
172.8392939460732
 20
-93.17070400717166
 30
0.0
 10
169.2840791664484
 20
-95.20802734711572
 30
0.0
  0
SPLINE
  5
52
330
1F
100
AcDbEntity
  8
Calque 1
 62
     7
370
    25
100
AcDbSpline
210
0.0
220
0.0
230
1.0
 70
     8
 71
     3
 72
     8
 73
     4
 74
     0
 42
0.0000000001
 43
0.0000000001
 12
1.0
 22
0.0
 32
0.0
 13
1.0
 23
0.0
 33
0.0
 40
0.0
 40
0.0
 40
0.0
 40
0.0
 40
1.0
 40
1.0
 40
1.0
 40
1.0
 10
161.1680665541614
 20
-98.96627800662122
 30
0.0
 10
163.9396049244861
 20
-97.8617475068502
 30
0.0
 10
166.6489520807872
 20
-96.60714056826417
 30
0.0
 10
169.2840791664318
 20
-95.20802734711572
 30
0.0
  0
SPLINE
  5
53
330
1F
100
AcDbEntity
  8
Calque 1
 62
     7
370
    25
100
AcDbSpline
210
0.0
220
0.0
230
1.0
 70
     8
 71
     3
 72
     8
 73
     4
 74
     0
 42
0.0000000001
 43
0.0000000001
 12
1.0
 22
0.0
 32
0.0
 13
1.0
 23
0.0
 33
0.0
 40
0.0
 40
0.0
 40
0.0
 40
0.0
 40
1.0
 40
1.0
 40
1.0
 40
1.0
 10
151.9866971530269
 20
-101.3997471966466
 30
0.0
 10
155.1063938076541
 20
-100.8313364061848
 30
0.0
 10
158.1763772964667
 20
-100.017654927142
 30
0.0
 10
161.1680665541614
 20
-98.96627800662122
 30
0.0
  0
SPLINE
  5
54
330
1F
100
AcDbEntity
  8
Calque 1
 62
     7
370
    25
100
AcDbSpline
210
0.0
220
0.0
230
1.0
 70
     8
 71
     3
 72
     8
 73
     4
 74
     0
 42
0.0000000001
 43
0.0000000001
 12
1.0
 22
0.0
 32
0.0
 13
1.0
 23
0.0
 33
0.0
 40
0.0
 40
0.0
 40
0.0
 40
0.0
 40
1.0
 40
1.0
 40
1.0
 40
1.0
 10
181.0217845160786
 20
-111.7700301406026
 30
0.0
 10
169.1322748492016
 20
-110.6032775591754
 30
0.0
 10
157.1927923808666
 20
-110.0190340310625
 30
0.0
 10
145.2461714538141
 20
-110.0193956008993
 30
0.0
  0
SPLINE
  5
55
330
1F
100
AcDbEntity
  8
Calque 1
 62
     7
370
    25
100
AcDbSpline
210
0.0
220
0.0
230
1.0
 70
     8
 71
     3
 72
    14
 73
    10
 74
     0
 42
0.0000000001
 43
0.0000000001
 12
1.0
 22
0.0
 32
0.0
 13
1.0
 23
0.0
 33
0.0
 40
0.0
 40
0.0
 40
0.0
 40
0.0
 40
1.0
 40
1.0
 40
1.0
 40
2.0
 40
2.0
 40
2.0
 40
3.0
 40
3.0
 40
3.0
 40
3.0
 10
111.2435171198235
 20
-91.92661415213094
 30
0.0
 10
105.8024400549712
 20
-91.00577665801848
 30
0.0
 10
100.6450893057579
 20
-94.67015484493038
 30
0.0
 10
99.72425181164418
 20
-100.1112319097811
 30
0.0
 10
98.8034143175468
 20
-105.5523089746318
 30
0.0
 10
102.4677925044597
 20
-110.709659723863
 30
0.0
 10
107.9088695693116
 20
-111.6304972179585
 30
0.0
 10
109.1211716771217
 20
-111.8356649121026
 30
0.0
 10
110.3609293195456
 20
-111.8153221051837
 30
0.0
 10
111.5658475332317
 20
-111.57049097635
 30
0.0
  0
SPLINE
  5
56
330
1F
100
AcDbEntity
  8
Calque 1
 62
     7
370
    25
100
AcDbSpline
210
0.0
220
0.0
230
1.0
 70
     8
 71
     3
 72
     8
 73
     4
 74
     0
 42
0.0000000001
 43
0.0000000001
 12
1.0
 22
0.0
 32
0.0
 13
1.0
 23
0.0
 33
0.0
 40
0.0
 40
0.0
 40
0.0
 40
0.0
 40
1.0
 40
1.0
 40
1.0
 40
1.0
 10
138.5056457546044
 20
-101.3997471966466
 30
0.0
 10
140.7324154469197
 20
-101.8071452228671
 30
0.0
 10
142.9845741892374
 20
-102.060870682984
 30
0.0
 10
145.2461714538141
 20
-102.159126609962
 30
0.0
  0
SPLINE
  5
57
330
1F
100
AcDbEntity
  8
Calque 1
 62
     7
370
    25
100
AcDbSpline
210
0.0
220
0.0
230
1.0
 70
     8
 71
     3
 72
     8
 73
     4
 74
     0
 42
0.0000000001
 43
0.0000000001
 12
1.0
 22
0.0
 32
0.0
 13
1.0
 23
0.0
 33
0.0
 40
0.0
 40
0.0
 40
0.0
 40
0.0
 40
1.0
 40
1.0
 40
1.0
 40
1.0
 10
121.2082637411996
 20
-95.20802734711572
 30
0.0
 10
117.6530489615418
 20
-93.17070400717166
 30
0.0
 10
113.6682902623837
 20
-91.99861087013012
 30
0.0
 10
109.5761933445668
 20
-91.78652283184907
 30
0.0
  0
SPLINE
  5
58
330
1F
100
AcDbEntity
  8
Calque 1
 62
     7
370
    25
100
AcDbSpline
210
0.0
220
0.0
230
1.0
 70
     8
 71
     3
 72
     8
 73
     4
 74
     0
 42
0.0000000001
 43
0.0000000001
 12
1.0
 22
0.0
 32
0.0
 13
1.0
 23
0.0
 33
0.0
 40
0.0
 40
0.0
 40
0.0
 40
0.0
 40
1.0
 40
1.0
 40
1.0
 40
1.0
 10
121.2082637411996
 20
-95.20802734711572
 30
0.0
 10
123.8433908268278
 20
-96.60714056826417
 30
0.0
 10
126.5527379831452
 20
-97.86174750686624
 30
0.0
 10
129.3242763534709
 20
-98.96627800662122
 30
0.0
  0
SPLINE
  5
59
330
1F
100
AcDbEntity
  8
Calque 1
 62
     7
370
    25
100
AcDbSpline
210
0.0
220
0.0
230
1.0
 70
     8
 71
     3
 72
     8
 73
     4
 74
     0
 42
0.0000000001
 43
0.0000000001
 12
1.0
 22
0.0
 32
0.0
 13
1.0
 23
0.0
 33
0.0
 40
0.0
 40
0.0
 40
0.0
 40
0.0
 40
1.0
 40
1.0
 40
1.0
 40
1.0
 10
129.3242763534709
 20
-98.96627800662122
 30
0.0
 10
132.3159656111649
 20
-100.017654927142
 30
0.0
 10
135.3859490999775
 20
-100.8313364061848
 30
0.0
 10
138.5056457546044
 20
-101.3997471966466
 30
0.0
  0
SPLINE
  5
5A
330
1F
100
AcDbEntity
  8
Calque 1
 62
     7
370
    25
100
AcDbSpline
210
0.0
220
0.0
230
1.0
 70
     8
 71
     3
 72
     8
 73
     4
 74
     0
 42
0.0000000001
 43
0.0000000001
 12
1.0
 22
0.0
 32
0.0
 13
1.0
 23
0.0
 33
0.0
 40
0.0
 40
0.0
 40
0.0
 40
0.0
 40
1.0
 40
1.0
 40
1.0
 40
1.0
 10
145.2461714538141
 20
-110.0193956008993
 30
0.0
 10
134.0015369651276
 20
-110.0190552770151
 30
0.0
 10
122.7628537293421
 20
-110.5366355008276
 30
0.0
 10
111.5658475332317
 20
-111.57049097635
 30
0.0
  0
SPLINE
  5
5B
330
1F
100
AcDbEntity
  8
Calque 1
 62
     7
370
    25
100
AcDbSpline
210
0.0
220
0.0
230
1.0
 70
    11
 71
     3
 72
    17
 73
    13
 74
     0
 42
0.0000000001
 43
0.0000000001
 12
1.0
 22
0.0
 32
0.0
 13
1.0
 23
0.0
 33
0.0
 40
0.0
 40
0.0
 40
0.0
 40
0.0
 40
1.0
 40
1.0
 40
1.0
 40
2.0
 40
2.0
 40
2.0
 40
3.0
 40
3.0
 40
3.0
 40
4.0
 40
4.0
 40
4.0
 40
4.0
 10
178.546784516736
 20
-101.8518865597361
 30
0.0
 10
178.546784516736
 20
-100.4521983112589
 30
0.0
 10
179.6548797606197
 20
-99.317526795328
 30
0.0
 10
181.0217845160747
 20
-99.317526795328
 30
0.0
 10
182.388689271549
 20
-99.317526795328
 30
0.0
 10
183.4967845154366
 20
-100.4521983112589
 30
0.0
 10
183.4967845154366
 20
-101.8518865597361
 30
0.0
 10
183.4967845154366
 20
-103.2515748081898
 30
0.0
 10
182.388689271549
 20
-104.3862463241448
 30
0.0
 10
181.0217845160747
 20
-104.3862463241448
 30
0.0
 10
179.6548797606197
 20
-104.3862463241448
 30
0.0
 10
178.546784516736
 20
-103.2515748081898
 30
0.0
 10
178.546784516736
 20
-101.8518865597361
 30
0.0
  0
SPLINE
  5
5C
330
1F
100
AcDbEntity
  8
Calque 1
 62
     7
370
    25
100
AcDbSpline
210
0.0
220
0.0
230
1.0
 70
    11
 71
     3
 72
    17
 73
    13
 74
     0
 42
0.0000000001
 43
0.0000000001
 12
1.0
 22
0.0
 32
0.0
 13
1.0
 23
0.0
 33
0.0
 40
0.0
 40
0.0
 40
0.0
 40
0.0
 40
1.0
 40
1.0
 40
1.0
 40
2.0
 40
2.0
 40
2.0
 40
3.0
 40
3.0
 40
3.0
 40
4.0
 40
4.0
 40
4.0
 40
4.0
 10
106.9955583922041
 20
-101.8518865597361
 30
0.0
 10
106.9955583922041
 20
-100.4521983112525
 30
0.0
 10
108.1036536360724
 20
-99.31752679531581
 30
0.0
 10
109.4705583915537
 20
-99.31752679531581
 30
0.0
 10
110.837463147011
 20
-99.31752679531581
 30
0.0
 10
111.9455583909047
 20
-100.4521983112525
 30
0.0
 10
111.9455583909047
 20
-101.8518865597361
 30
0.0
 10
111.9455583909047
 20
-103.2515748081965
 30
0.0
 10
110.837463147011
 20
-104.3862463241566
 30
0.0
 10
109.4705583915537
 20
-104.3862463241566
 30
0.0
 10
108.1036536360724
 20
-104.3862463241566
 30
0.0
 10
106.9955583922041
 20
-103.2515748081965
 30
0.0
 10
106.9955583922041
 20
-101.8518865597361
 30
0.0
  0
SPLINE
  5
5D
330
1F
100
AcDbEntity
  8
Calque 1
 62
     7
370
    25
100
AcDbSpline
210
0.0
220
0.0
230
1.0
 70
     8
 71
     3
 72
    11
 73
     7
 74
     0
 42
0.0000000001
 43
0.0000000001
 12
1.0
 22
0.0
 32
0.0
 13
1.0
 23
0.0
 33
0.0
 40
0.0
 40
0.0
 40
0.0
 40
0.0
 40
1.0
 40
1.0
 40
1.0
 40
2.0
 40
2.0
 40
2.0
 40
2.0
 10
180.5548829537344
 20
-146.6671826644569
 30
0.0
 10
184.9176629302406
 20
-147.1242036655502
 30
0.0
 10
188.8248836186718
 20
-143.9579604236061
 30
0.0
 10
189.2819046197658
 20
-139.595180447116
 30
0.0
 10
189.7389256208585
 20
-135.2324004706078
 30
0.0
 10
186.5726823789329
 20
-131.3251797821612
 30
0.0
 10
182.2099024024242
 20
-130.8681587810672
 30
0.0
  0
SPLINE
  5
5E
330
1F
100
AcDbEntity
  8
Calque 1
 62
     7
370
    25
100
AcDbSpline
210
0.0
220
0.0
230
1.0
 70
     8
 71
     3
 72
     8
 73
     4
 74
     0
 42
0.0000000001
 43
0.0000000001
 12
1.0
 22
0.0
 32
0.0
 13
1.0
 23
0.0
 33
0.0
 40
0.0
 40
0.0
 40
0.0
 40
0.0
 40
1.0
 40
1.0
 40
1.0
 40
1.0
 10
180.9002833777715
 20
-146.6957620367708
 30
0.0
 10
168.9558643625017
 20
-145.7037949094422
 30
0.0
 10
156.9831495014119
 20
-145.088510296356
 30
0.0
 10
144.9999675441302
 20
-144.8508244271058
 30
0.0
  0
SPLINE
  5
5F
330
1F
100
AcDbEntity
  8
Calque 1
 62
     7
370
    25
100
AcDbSpline
210
0.0
220
0.0
230
1.0
 70
     8
 71
     3
 72
    11
 73
     7
 74
     0
 42
0.0000000001
 43
0.0000000001
 12
1.0
 22
0.0
 32
0.0
 13
1.0
 23
0.0
 33
0.0
 40
0.0
 40
0.0
 40
0.0
 40
0.0
 40
1.0
 40
1.0
 40
1.0
 40
2.0
 40
2.0
 40
2.0
 40
2.0
 10
107.8018266526604
 20
-130.8669322089388
 30
0.0
 10
103.4383692590794
 20
-131.3174395820278
 30
0.0
 10
100.2662965233081
 20
-135.2199290867231
 30
0.0
 10
100.716803896383
 20
-139.5833864803057
 30
0.0
 10
101.167311269454
 20
-143.9468438738869
 30
0.0
 10
105.06980077415
 20
-147.118916609657
 30
0.0
 10
109.4332581677312
 20
-146.668409236584
 30
0.0
  0
SPLINE
  5
60
330
1F
100
AcDbEntity
  8
Calque 1
 62
     7
370
    25
100
AcDbSpline
210
0.0
220
0.0
230
1.0
 70
     8
 71
     3
 72
     8
 73
     4
 74
     0
 42
0.0000000001
 43
0.0000000001
 12
1.0
 22
0.0
 32
0.0
 13
1.0
 23
0.0
 33
0.0
 40
0.0
 40
0.0
 40
0.0
 40
0.0
 40
1.0
 40
1.0
 40
1.0
 40
1.0
 10
144.9999675441302
 20
-144.8508244271058
 30
0.0
 10
133.0167855868634
 20
-145.088510296356
 30
0.0
 10
121.0440707257729
 20
-145.7037949094422
 30
0.0
 10
109.099651710521
 20
-146.6957620367708
 30
0.0
  0
SPLINE
  5
61
330
1F
100
AcDbEntity
  8
Calque 1
 62
     7
370
    25
100
AcDbSpline
210
0.0
220
0.0
230
1.0
 70
     8
 71
     3
 72
     8
 73
     4
 74
     0
 42
0.0000000001
 43
0.0000000001
 12
1.0
 22
0.0
 32
0.0
 13
1.0
 23
0.0
 33
0.0
 40
0.0
 40
0.0
 40
0.0
 40
0.0
 40
1.0
 40
1.0
 40
1.0
 40
1.0
 10
182.1981084356152
 20
-130.8669322089388
 30
0.0
 10
160.8086120974997
 20
-112.4772037615264
 30
0.0
 10
129.1913229907755
 20
-112.4772037615264
 30
0.0
 10
107.8018266526604
 20
-130.8669322089388
 30
0.0
  0
SPLINE
  5
62
330
1F
100
AcDbEntity
  8
Calque 1
 62
     7
370
    25
100
AcDbSpline
210
0.0
220
0.0
230
1.0
 70
     8
 71
     3
 72
    11
 73
     7
 74
     0
 42
0.0000000001
 43
0.0000000001
 12
1.0
 22
0.0
 32
0.0
 13
1.0
 23
0.0
 33
0.0
 40
0.0
 40
0.0
 40
0.0
 40
0.0
 40
1.0
 40
1.0
 40
1.0
 40
2.0
 40
2.0
 40
2.0
 40
2.0
 10
133.5336534254014
 20
-129.0969988408135
 30
0.0
 10
132.4488280133285
 20
-129.4321457427278
 30
0.0
 10
131.8410935035149
 20
-130.5832607426936
 30
0.0
 10
132.1762404053974
 20
-131.6680861547674
 30
0.0
 10
132.3204620122512
 20
-132.1349120845107
 30
0.0
 10
132.6262308303582
 20
-132.5351125685158
 30
0.0
 10
133.0387408486974
 20
-132.7969556615055
 30
0.0
  0
SPLINE
  5
63
330
1F
100
AcDbEntity
  8
Calque 1
 62
     7
370
    25
100
AcDbSpline
210
0.0
220
0.0
230
1.0
 70
     8
 71
     3
 72
    11
 73
     7
 74
     0
 42
0.0000000001
 43
0.0000000001
 12
1.0
 22
0.0
 32
0.0
 13
1.0
 23
0.0
 33
0.0
 40
0.0
 40
0.0
 40
0.0
 40
0.0
 40
1.0
 40
1.0
 40
1.0
 40
2.0
 40
2.0
 40
2.0
 40
2.0
 10
156.9611942395951
 20
-132.7969556615055
 30
0.0
 10
157.9197985546241
 20
-132.188476090971
 30
0.0
 10
158.2036307401299
 20
-130.9181035991275
 30
0.0
 10
157.5951511696127
 20
-129.9594992840966
 30
0.0
 10
157.3333080766397
 20
-129.5469892657734
 30
0.0
 10
156.9331075926186
 20
-129.2412204476677
 30
0.0
 10
156.4662816628733
 20
-129.0969988408135
 30
0.0
  0
SPLINE
  5
64
330
1F
100
AcDbEntity
  8
Calque 1
 62
     7
370
    25
100
AcDbSpline
210
0.0
220
0.0
230
1.0
 70
     8
 71
     3
 72
    11
 73
     7
 74
     0
 42
0.0000000001
 43
0.0000000001
 12
1.0
 22
0.0
 32
0.0
 13
1.0
 23
0.0
 33
0.0
 40
0.0
 40
0.0
 40
0.0
 40
0.0
 40
1.0
 40
1.0
 40
1.0
 40
2.0
 40
2.0
 40
2.0
 40
2.0
 10
133.5336534254014
 20
-129.0969988408135
 30
0.0
 10
132.4488280133285
 20
-129.4321457427278
 30
0.0
 10
131.8410935035149
 20
-130.5832607426936
 30
0.0
 10
132.1762404053974
 20
-131.6680861547674
 30
0.0
 10
132.3204620122512
 20
-132.1349120845107
 30
0.0
 10
132.6262308303582
 20
-132.5351125685158
 30
0.0
 10
133.0387408486974
 20
-132.7969556615055
 30
0.0
  0
SPLINE
  5
65
330
1F
100
AcDbEntity
  8
Calque 1
 62
     7
370
    25
100
AcDbSpline
210
0.0
220
0.0
230
1.0
 70
     8
 71
     3
 72
     8
 73
     4
 74
     0
 42
0.0000000001
 43
0.0000000001
 12
1.0
 22
0.0
 32
0.0
 13
1.0
 23
0.0
 33
0.0
 40
0.0
 40
0.0
 40
0.0
 40
0.0
 40
1.0
 40
1.0
 40
1.0
 40
1.0
 10
133.0387408486974
 20
-132.7969556615055
 30
0.0
 10
136.7105614431498
 20
-134.7878968125595
 30
0.0
 10
140.8231243842497
 20
-135.8260252685098
 30
0.0
 10
144.9999675441302
 20
-135.8163112260177
 30
0.0
  0
SPLINE
  5
66
330
1F
100
AcDbEntity
  8
Calque 1
 62
     7
370
    25
100
AcDbSpline
210
0.0
220
0.0
230
1.0
 70
     8
 71
     3
 72
     8
 73
     4
 74
     0
 42
0.0000000001
 43
0.0000000001
 12
1.0
 22
0.0
 32
0.0
 13
1.0
 23
0.0
 33
0.0
 40
0.0
 40
0.0
 40
0.0
 40
0.0
 40
1.0
 40
1.0
 40
1.0
 40
1.0
 10
144.9999675441302
 20
-128.0387161140581
 30
0.0
 10
141.1535841162174
 20
-128.0409944610733
 30
0.0
 10
137.3154776309717
 20
-128.395232253168
 30
0.0
 10
133.5336534254014
 20
-129.0969988408135
 30
0.0
  0
SPLINE
  5
67
330
1F
100
AcDbEntity
  8
Calque 1
 62
     7
370
    25
100
AcDbSpline
210
0.0
220
0.0
230
1.0
 70
     8
 71
     3
 72
     8
 73
     4
 74
     0
 42
0.0000000001
 43
0.0000000001
 12
1.0
 22
0.0
 32
0.0
 13
1.0
 23
0.0
 33
0.0
 40
0.0
 40
0.0
 40
0.0
 40
0.0
 40
1.0
 40
1.0
 40
1.0
 40
1.0
 10
144.9999675441302
 20
-135.8163112260177
 30
0.0
 10
149.1768107040095
 20
-135.8260252685098
 30
0.0
 10
153.2893736451248
 20
-134.7878968125595
 30
0.0
 10
156.9611942395951
 20
-132.7969556615055
 30
0.0
  0
SPLINE
  5
68
330
1F
100
AcDbEntity
  8
Calque 1
 62
     7
370
    25
100
AcDbSpline
210
0.0
220
0.0
230
1.0
 70
     8
 71
     3
 72
     8
 73
     4
 74
     0
 42
0.0000000001
 43
0.0000000001
 12
1.0
 22
0.0
 32
0.0
 13
1.0
 23
0.0
 33
0.0
 40
0.0
 40
0.0
 40
0.0
 40
0.0
 40
1.0
 40
1.0
 40
1.0
 40
1.0
 10
156.4662816628733
 20
-129.0969988408135
 30
0.0
 10
152.6844574573016
 20
-128.395232253168
 30
0.0
 10
148.8463509720418
 20
-128.0409944610733
 30
0.0
 10
144.9999675441302
 20
-128.0387161140581
 30
0.0
  0
SPLINE
  5
69
330
1F
100
AcDbEntity
  8
Calque 1
 62
     7
370
    25
100
AcDbSpline
210
0.0
220
0.0
230
1.0
 70
     8
 71
     3
 72
    11
 73
     7
 74
     0
 42
0.0000000001
 43
0.0000000001
 12
1.0
 22
0.0
 32
0.0
 13
1.0
 23
0.0
 33
0.0
 40
0.0
 40
0.0
 40
0.0
 40
0.0
 40
1.0
 40
1.0
 40
1.0
 40
2.0
 40
2.0
 40
2.0
 40
2.0
 10
156.9611942395951
 20
-132.7969556615055
 30
0.0
 10
157.9197985546241
 20
-132.188476090971
 30
0.0
 10
158.2036307401299
 20
-130.9181035991275
 30
0.0
 10
157.5951511696127
 20
-129.9594992840966
 30
0.0
 10
157.3333080766397
 20
-129.5469892657734
 30
0.0
 10
156.9331075926186
 20
-129.2412204476677
 30
0.0
 10
156.4662816628733
 20
-129.0969988408135
 30
0.0
  0
SPLINE
  5
6A
330
1F
100
AcDbEntity
  8
Calque 1
 62
     7
370
    25
100
AcDbSpline
210
0.0
220
0.0
230
1.0
 70
     8
 71
     3
 72
     8
 73
     4
 74
     0
 42
0.0000000001
 43
0.0000000001
 12
1.0
 22
0.0
 32
0.0
 13
1.0
 23
0.0
 33
0.0
 40
0.0
 40
0.0
 40
0.0
 40
0.0
 40
1.0
 40
1.0
 40
1.0
 40
1.0
 10
133.0387408486974
 20
-132.7969556615055
 30
0.0
 10
136.7105614431498
 20
-134.7878968125595
 30
0.0
 10
140.8231243842497
 20
-135.8260252685098
 30
0.0
 10
144.9999675441302
 20
-135.8163112260177
 30
0.0
  0
SPLINE
  5
6B
330
1F
100
AcDbEntity
  8
Calque 1
 62
     7
370
    25
100
AcDbSpline
210
0.0
220
0.0
230
1.0
 70
     8
 71
     3
 72
     8
 73
     4
 74
     0
 42
0.0000000001
 43
0.0000000001
 12
1.0
 22
0.0
 32
0.0
 13
1.0
 23
0.0
 33
0.0
 40
0.0
 40
0.0
 40
0.0
 40
0.0
 40
1.0
 40
1.0
 40
1.0
 40
1.0
 10
144.9999675441302
 20
-128.0387161140581
 30
0.0
 10
141.1535841162174
 20
-128.0409944610733
 30
0.0
 10
137.3154776309717
 20
-128.395232253168
 30
0.0
 10
133.5336534254014
 20
-129.0969988408135
 30
0.0
  0
SPLINE
  5
6C
330
1F
100
AcDbEntity
  8
Calque 1
 62
     7
370
    25
100
AcDbSpline
210
0.0
220
0.0
230
1.0
 70
     8
 71
     3
 72
     8
 73
     4
 74
     0
 42
0.0000000001
 43
0.0000000001
 12
1.0
 22
0.0
 32
0.0
 13
1.0
 23
0.0
 33
0.0
 40
0.0
 40
0.0
 40
0.0
 40
0.0
 40
1.0
 40
1.0
 40
1.0
 40
1.0
 10
144.9999675441302
 20
-135.8163112260177
 30
0.0
 10
149.1768107040095
 20
-135.8260252685098
 30
0.0
 10
153.2893736451248
 20
-134.7878968125595
 30
0.0
 10
156.9611942395951
 20
-132.7969556615055
 30
0.0
  0
SPLINE
  5
6D
330
1F
100
AcDbEntity
  8
Calque 1
 62
     7
370
    25
100
AcDbSpline
210
0.0
220
0.0
230
1.0
 70
     8
 71
     3
 72
     8
 73
     4
 74
     0
 42
0.0000000001
 43
0.0000000001
 12
1.0
 22
0.0
 32
0.0
 13
1.0
 23
0.0
 33
0.0
 40
0.0
 40
0.0
 40
0.0
 40
0.0
 40
1.0
 40
1.0
 40
1.0
 40
1.0
 10
156.4662816628733
 20
-129.0969988408135
 30
0.0
 10
152.6844574573016
 20
-128.395232253168
 30
0.0
 10
148.8463509720418
 20
-128.0409944610733
 30
0.0
 10
144.9999675441302
 20
-128.0387161140581
 30
0.0
  0
SPLINE
  5
6E
330
1F
100
AcDbEntity
  8
Calque 1
 62
     7
370
    25
100
AcDbSpline
210
0.0
220
0.0
230
1.0
 70
     8
 71
     3
 72
     8
 73
     4
 74
     0
 42
0.0000000001
 43
0.0000000001
 12
1.0
 22
0.0
 32
0.0
 13
1.0
 23
0.0
 33
0.0
 40
0.0
 40
0.0
 40
0.0
 40
0.0
 40
1.0
 40
1.0
 40
1.0
 40
1.0
 10
144.9999675441302
 20
-119.4977520236077
 30
0.0
 10
137.0487896578345
 20
-119.4977520236077
 30
0.0
 10
129.1853819226255
 20
-121.1595755194424
 30
0.0
 10
121.9140858720241
 20
-124.3766368374969
 30
0.0
  0
SPLINE
  5
6F
330
1F
100
AcDbEntity
  8
Calque 1
 62
     7
370
    25
100
AcDbSpline
210
0.0
220
0.0
230
1.0
 70
     8
 71
     3
 72
     8
 73
     4
 74
     0
 42
0.0000000001
 43
0.0000000001
 12
1.0
 22
0.0
 32
0.0
 13
1.0
 23
0.0
 33
0.0
 40
0.0
 40
0.0
 40
0.0
 40
0.0
 40
1.0
 40
1.0
 40
1.0
 40
1.0
 10
144.9999675441302
 20
-122.0484553858461
 30
0.0
 10
137.7908629314191
 20
-122.0484553858461
 30
0.0
 10
130.6470576949817
 20
-123.4146133560792
 30
0.0
 10
123.946644831169
 20
-126.074624027394
 30
0.0
  0
SPLINE
  5
70
330
1F
100
AcDbEntity
  8
Calque 1
 62
     7
370
    25
100
AcDbSpline
210
0.0
220
0.0
230
1.0
 70
     8
 71
     3
 72
    11
 73
     7
 74
     0
 42
0.0000000001
 43
0.0000000001
 12
1.0
 22
0.0
 32
0.0
 13
1.0
 23
0.0
 33
0.0
 40
0.0
 40
0.0
 40
0.0
 40
0.0
 40
1.0
 40
1.0
 40
1.0
 40
2.0
 40
2.0
 40
2.0
 40
2.0
 10
121.9140858720241
 20
-124.3766368374969
 30
0.0
 10
121.9380201889794
 20
-125.3496117217396
 30
0.0
 10
122.7461747732547
 20
-126.1189611110386
 30
0.0
 10
123.7191496574981
 20
-126.0950267941007
 30
0.0
 10
123.7953427966759
 20
-126.0931525106222
 30
0.0
 10
123.8713340937386
 20
-126.0863372772192
 30
0.0
 10
123.946644831169
 20
-126.074624027394
 30
0.0
  0
SPLINE
  5
71
330
1F
100
AcDbEntity
  8
Calque 1
 62
     7
370
    25
100
AcDbSpline
210
0.0
220
0.0
230
1.0
 70
     8
 71
     3
 72
     8
 73
     4
 74
     0
 42
0.0000000001
 43
0.0000000001
 12
1.0
 22
0.0
 32
0.0
 13
1.0
 23
0.0
 33
0.0
 40
0.0
 40
0.0
 40
0.0
 40
0.0
 40
1.0
 40
1.0
 40
1.0
 40
1.0
 10
168.0858492162506
 20
-124.3766368375129
 30
0.0
 10
160.8145531656501
 20
-121.1595755194424
 30
0.0
 10
152.9511454304401
 20
-119.4977520236077
 30
0.0
 10
144.9999675441302
 20
-119.4977520236077
 30
0.0
  0
SPLINE
  5
72
330
1F
100
AcDbEntity
  8
Calque 1
 62
     7
370
    25
100
AcDbSpline
210
0.0
220
0.0
230
1.0
 70
     8
 71
     3
 72
     8
 73
     4
 74
     0
 42
0.0000000001
 43
0.0000000001
 12
1.0
 22
0.0
 32
0.0
 13
1.0
 23
0.0
 33
0.0
 40
0.0
 40
0.0
 40
0.0
 40
0.0
 40
1.0
 40
1.0
 40
1.0
 40
1.0
 10
166.053290257104
 20
-126.074624027394
 30
0.0
 10
159.3528773932939
 20
-123.4146133560792
 30
0.0
 10
152.2090721568398
 20
-122.0484553858461
 30
0.0
 10
144.9999675441302
 20
-122.0484553858461
 30
0.0
  0
SPLINE
  5
73
330
1F
100
AcDbEntity
  8
Calque 1
 62
     7
370
    25
100
AcDbSpline
210
0.0
220
0.0
230
1.0
 70
     8
 71
     3
 72
    11
 73
     7
 74
     0
 42
0.0000000001
 43
0.0000000001
 12
1.0
 22
0.0
 32
0.0
 13
1.0
 23
0.0
 33
0.0
 40
0.0
 40
0.0
 40
0.0
 40
0.0
 40
1.0
 40
1.0
 40
1.0
 40
2.0
 40
2.0
 40
2.0
 40
2.0
 10
166.053290257104
 20
-126.074624027394
 30
0.0
 10
167.0149970044265
 20
-126.2242004594219
 30
0.0
 10
167.9158700175186
 20
-125.5658387585237
 30
0.0
 10
168.0654464495451
 20
-124.6041320111852
 30
0.0
 10
168.0771596993844
 20
-124.5288212737371
 30
0.0
 10
168.0839749327907
 20
-124.4528299766905
 30
0.0
 10
168.0858492162506
 20
-124.3766368374969
 30
0.0
  0
SPLINE
  5
74
330
1F
100
AcDbEntity
  8
Calque 1
 62
     7
370
    25
100
AcDbSpline
210
0.0
220
0.0
230
1.0
 70
    11
 71
     3
 72
    17
 73
    13
 74
     0
 42
0.0000000001
 43
0.0000000001
 12
1.0
 22
0.0
 32
0.0
 13
1.0
 23
0.0
 33
0.0
 40
0.0
 40
0.0
 40
0.0
 40
0.0
 40
1.0
 40
1.0
 40
1.0
 40
2.0
 40
2.0
 40
2.0
 40
3.0
 40
3.0
 40
3.0
 40
4.0
 40
4.0
 40
4.0
 40
4.0
 10
178.3002105236594
 20
-136.9010345588927
 30
0.0
 10
178.3002105236594
 20
-135.5013463104156
 30
0.0
 10
179.4083057675431
 20
-134.3666747944844
 30
0.0
 10
180.7752105229982
 20
-134.3666747944844
 30
0.0
 10
182.1421152784724
 20
-134.3666747944844
 30
0.0
 10
183.25021052236
 20
-135.5013463104156
 30
0.0
 10
183.25021052236
 20
-136.9010345588927
 30
0.0
 10
183.25021052236
 20
-138.3007228073461
 30
0.0
 10
182.1421152784724
 20
-139.4353943233011
 30
0.0
 10
180.7752105229982
 20
-139.4353943233011
 30
0.0
 10
179.4083057675431
 20
-139.4353943233011
 30
0.0
 10
178.3002105236594
 20
-138.3007228073461
 30
0.0
 10
178.3002105236594
 20
-136.9010345588927
 30
0.0
  0
SPLINE
  5
75
330
1F
100
AcDbEntity
  8
Calque 1
 62
     7
370
    25
100
AcDbSpline
210
0.0
220
0.0
230
1.0
 70
    11
 71
     3
 72
    17
 73
    13
 74
     0
 42
0.0000000001
 43
0.0000000001
 12
1.0
 22
0.0
 32
0.0
 13
1.0
 23
0.0
 33
0.0
 40
0.0
 40
0.0
 40
0.0
 40
0.0
 40
1.0
 40
1.0
 40
1.0
 40
2.0
 40
2.0
 40
2.0
 40
3.0
 40
3.0
 40
3.0
 40
4.0
 40
4.0
 40
4.0
 40
4.0
 10
106.7489843991275
 20
-136.9010345588927
 30
0.0
 10
106.7489843991275
 20
-135.5013463104092
 30
0.0
 10
107.8570796429958
 20
-134.3666747944728
 30
0.0
 10
109.2239843984772
 20
-134.3666747944728
 30
0.0
 10
110.5908891539344
 20
-134.3666747944728
 30
0.0
 10
111.6989843978281
 20
-135.5013463104092
 30
0.0
 10
111.6989843978281
 20
-136.9010345588927
 30
0.0
 10
111.6989843978281
 20
-138.3007228073532
 30
0.0
 10
110.5908891539344
 20
-139.4353943233133
 30
0.0
 10
109.2239843984772
 20
-139.4353943233133
 30
0.0
 10
107.8570796429958
 20
-139.4353943233133
 30
0.0
 10
106.7489843991275
 20
-138.3007228073532
 30
0.0
 10
106.7489843991275
 20
-136.9010345588927
 30
0.0
  0
SPLINE
  5
76
330
1F
100
AcDbEntity
  8
Calque 1
 62
     7
370
    25
100
AcDbSpline
210
0.0
220
0.0
230
1.0
 70
     8
 71
     3
 72
    11
 73
     7
 74
     0
 42
0.0000000001
 43
0.0000000001
 12
1.0
 22
0.0
 32
0.0
 13
1.0
 23
0.0
 33
0.0
 40
0.0
 40
0.0
 40
0.0
 40
0.0
 40
1.0
 40
1.0
 40
1.0
 40
2.0
 40
2.0
 40
2.0
 40
2.0
 10
180.554875749378
 20
-179.3229307044456
 30
0.0
 10
184.9176557258841
 20
-179.7799517055396
 30
0.0
 10
188.8248764143154
 20
-176.6137084635948
 30
0.0
 10
189.2818974154094
 20
-172.2509284871053
 30
0.0
 10
189.7389184165021
 20
-167.8881485105966
 30
0.0
 10
186.5726751745765
 20
-163.9809278221499
 30
0.0
 10
182.2098951980678
 20
-163.5239068210559
 30
0.0
  0
SPLINE
  5
77
330
1F
100
AcDbEntity
  8
Calque 1
 62
     7
370
    25
100
AcDbSpline
210
0.0
220
0.0
230
1.0
 70
     8
 71
     3
 72
     8
 73
     4
 74
     0
 42
0.0000000001
 43
0.0000000001
 12
1.0
 22
0.0
 32
0.0
 13
1.0
 23
0.0
 33
0.0
 40
0.0
 40
0.0
 40
0.0
 40
0.0
 40
1.0
 40
1.0
 40
1.0
 40
1.0
 10
180.9002761734151
 20
-179.3515100767595
 30
0.0
 10
168.9558571581453
 20
-178.3595429494316
 30
0.0
 10
156.9831422970555
 20
-177.7442583363447
 30
0.0
 10
144.9999603397735
 20
-177.5065724670945
 30
0.0
  0
SPLINE
  5
78
330
1F
100
AcDbEntity
  8
Calque 1
 62
     7
370
    25
100
AcDbSpline
210
0.0
220
0.0
230
1.0
 70
     8
 71
     3
 72
    11
 73
     7
 74
     0
 42
0.0000000001
 43
0.0000000001
 12
1.0
 22
0.0
 32
0.0
 13
1.0
 23
0.0
 33
0.0
 40
0.0
 40
0.0
 40
0.0
 40
0.0
 40
1.0
 40
1.0
 40
1.0
 40
2.0
 40
2.0
 40
2.0
 40
2.0
 10
107.8018194483037
 20
-163.5226802489281
 30
0.0
 10
103.4383620547227
 20
-163.9731876220165
 30
0.0
 10
100.2662893189514
 20
-167.8756771267118
 30
0.0
 10
100.7167966920263
 20
-172.239134520295
 30
0.0
 10
101.1673040650972
 20
-176.6025919138756
 30
0.0
 10
105.0697935697932
 20
-179.7746646496463
 30
0.0
 10
109.4332509633745
 20
-179.3241572765734
 30
0.0
  0
SPLINE
  5
79
330
1F
100
AcDbEntity
  8
Calque 1
 62
     7
370
    25
100
AcDbSpline
210
0.0
220
0.0
230
1.0
 70
     8
 71
     3
 72
     8
 73
     4
 74
     0
 42
0.0000000001
 43
0.0000000001
 12
1.0
 22
0.0
 32
0.0
 13
1.0
 23
0.0
 33
0.0
 40
0.0
 40
0.0
 40
0.0
 40
0.0
 40
1.0
 40
1.0
 40
1.0
 40
1.0
 10
144.9999603397735
 20
-177.5065724670945
 30
0.0
 10
133.0167783825067
 20
-177.7442583363447
 30
0.0
 10
121.0440635214162
 20
-178.3595429494316
 30
0.0
 10
109.0996445061643
 20
-179.3515100767595
 30
0.0
  0
SPLINE
  5
7A
330
1F
100
AcDbEntity
  8
Calque 1
 62
     7
370
    25
100
AcDbSpline
210
0.0
220
0.0
230
1.0
 70
     8
 71
     3
 72
     8
 73
     4
 74
     0
 42
0.0000000001
 43
0.0000000001
 12
1.0
 22
0.0
 32
0.0
 13
1.0
 23
0.0
 33
0.0
 40
0.0
 40
0.0
 40
0.0
 40
0.0
 40
1.0
 40
1.0
 40
1.0
 40
1.0
 10
182.1981012312588
 20
-163.5226802489281
 30
0.0
 10
160.8086048931434
 20
-145.1329518015151
 30
0.0
 10
129.1913157864188
 20
-145.1329518015151
 30
0.0
 10
107.8018194483037
 20
-163.5226802489281
 30
0.0
  0
SPLINE
  5
7B
330
1F
100
AcDbEntity
  8
Calque 1
 62
     7
370
    25
100
AcDbSpline
210
0.0
220
0.0
230
1.0
 70
     8
 71
     3
 72
    11
 73
     7
 74
     0
 42
0.0000000001
 43
0.0000000001
 12
1.0
 22
0.0
 32
0.0
 13
1.0
 23
0.0
 33
0.0
 40
0.0
 40
0.0
 40
0.0
 40
0.0
 40
1.0
 40
1.0
 40
1.0
 40
2.0
 40
2.0
 40
2.0
 40
2.0
 10
133.5336462210446
 20
-161.7527468808022
 30
0.0
 10
132.4488208089718
 20
-162.0878937827165
 30
0.0
 10
131.8410862991581
 20
-163.2390087826823
 30
0.0
 10
132.1762332010407
 20
-164.3238341947561
 30
0.0
 10
132.3204548078945
 20
-164.7906601245001
 30
0.0
 10
132.6262236260015
 20
-165.1908606085045
 30
0.0
 10
133.0387336443407
 20
-165.4527037014942
 30
0.0
  0
SPLINE
  5
7C
330
1F
100
AcDbEntity
  8
Calque 1
 62
     7
370
    25
100
AcDbSpline
210
0.0
220
0.0
230
1.0
 70
     8
 71
     3
 72
    11
 73
     7
 74
     0
 42
0.0000000001
 43
0.0000000001
 12
1.0
 22
0.0
 32
0.0
 13
1.0
 23
0.0
 33
0.0
 40
0.0
 40
0.0
 40
0.0
 40
0.0
 40
1.0
 40
1.0
 40
1.0
 40
2.0
 40
2.0
 40
2.0
 40
2.0
 10
156.9611870352387
 20
-165.4527037014942
 30
0.0
 10
157.9197913502677
 20
-164.8442241309603
 30
0.0
 10
158.2036235357735
 20
-163.5738516391162
 30
0.0
 10
157.5951439652563
 20
-162.6152473240859
 30
0.0
 10
157.3333008722832
 20
-162.2027373057621
 30
0.0
 10
156.9331003882621
 20
-161.896968487657
 30
0.0
 10
156.4662744585169
 20
-161.7527468808022
 30
0.0
  0
SPLINE
  5
7D
330
1F
100
AcDbEntity
  8
Calque 1
 62
     7
370
    25
100
AcDbSpline
210
0.0
220
0.0
230
1.0
 70
     8
 71
     3
 72
    11
 73
     7
 74
     0
 42
0.0000000001
 43
0.0000000001
 12
1.0
 22
0.0
 32
0.0
 13
1.0
 23
0.0
 33
0.0
 40
0.0
 40
0.0
 40
0.0
 40
0.0
 40
1.0
 40
1.0
 40
1.0
 40
2.0
 40
2.0
 40
2.0
 40
2.0
 10
133.5336462210446
 20
-161.7527468808022
 30
0.0
 10
132.4488208089718
 20
-162.0878937827165
 30
0.0
 10
131.8410862991581
 20
-163.2390087826823
 30
0.0
 10
132.1762332010407
 20
-164.3238341947561
 30
0.0
 10
132.3204548078945
 20
-164.7906601245001
 30
0.0
 10
132.6262236260015
 20
-165.1908606085045
 30
0.0
 10
133.0387336443407
 20
-165.4527037014942
 30
0.0
  0
SPLINE
  5
7E
330
1F
100
AcDbEntity
  8
Calque 1
 62
     7
370
    25
100
AcDbSpline
210
0.0
220
0.0
230
1.0
 70
     8
 71
     3
 72
     8
 73
     4
 74
     0
 42
0.0000000001
 43
0.0000000001
 12
1.0
 22
0.0
 32
0.0
 13
1.0
 23
0.0
 33
0.0
 40
0.0
 40
0.0
 40
0.0
 40
0.0
 40
1.0
 40
1.0
 40
1.0
 40
1.0
 10
133.0387336443407
 20
-165.4527037014942
 30
0.0
 10
136.7105542387931
 20
-167.4436448525489
 30
0.0
 10
140.8231171798929
 20
-168.4817733084992
 30
0.0
 10
144.9999603397735
 20
-168.4720592660071
 30
0.0
  0
SPLINE
  5
7F
330
1F
100
AcDbEntity
  8
Calque 1
 62
     7
370
    25
100
AcDbSpline
210
0.0
220
0.0
230
1.0
 70
     8
 71
     3
 72
     8
 73
     4
 74
     0
 42
0.0000000001
 43
0.0000000001
 12
1.0
 22
0.0
 32
0.0
 13
1.0
 23
0.0
 33
0.0
 40
0.0
 40
0.0
 40
0.0
 40
0.0
 40
1.0
 40
1.0
 40
1.0
 40
1.0
 10
144.9999603397735
 20
-160.6944641540474
 30
0.0
 10
141.1535769118607
 20
-160.6967425010619
 30
0.0
 10
137.315470426615
 20
-161.0509802931573
 30
0.0
 10
133.5336462210446
 20
-161.7527468808022
 30
0.0
  0
SPLINE
  5
80
330
1F
100
AcDbEntity
  8
Calque 1
 62
     7
370
    25
100
AcDbSpline
210
0.0
220
0.0
230
1.0
 70
     8
 71
     3
 72
     8
 73
     4
 74
     0
 42
0.0000000001
 43
0.0000000001
 12
1.0
 22
0.0
 32
0.0
 13
1.0
 23
0.0
 33
0.0
 40
0.0
 40
0.0
 40
0.0
 40
0.0
 40
1.0
 40
1.0
 40
1.0
 40
1.0
 10
144.9999603397735
 20
-168.4720592660071
 30
0.0
 10
149.1768034996531
 20
-168.4817733084992
 30
0.0
 10
153.2893664407684
 20
-167.4436448525489
 30
0.0
 10
156.9611870352387
 20
-165.4527037014942
 30
0.0
  0
SPLINE
  5
81
330
1F
100
AcDbEntity
  8
Calque 1
 62
     7
370
    25
100
AcDbSpline
210
0.0
220
0.0
230
1.0
 70
     8
 71
     3
 72
     8
 73
     4
 74
     0
 42
0.0000000001
 43
0.0000000001
 12
1.0
 22
0.0
 32
0.0
 13
1.0
 23
0.0
 33
0.0
 40
0.0
 40
0.0
 40
0.0
 40
0.0
 40
1.0
 40
1.0
 40
1.0
 40
1.0
 10
156.4662744585169
 20
-161.7527468808022
 30
0.0
 10
152.6844502529452
 20
-161.0509802931573
 30
0.0
 10
148.8463437676854
 20
-160.6967425010619
 30
0.0
 10
144.9999603397735
 20
-160.6944641540474
 30
0.0
  0
SPLINE
  5
82
330
1F
100
AcDbEntity
  8
Calque 1
 62
     7
370
    25
100
AcDbSpline
210
0.0
220
0.0
230
1.0
 70
     8
 71
     3
 72
    11
 73
     7
 74
     0
 42
0.0000000001
 43
0.0000000001
 12
1.0
 22
0.0
 32
0.0
 13
1.0
 23
0.0
 33
0.0
 40
0.0
 40
0.0
 40
0.0
 40
0.0
 40
1.0
 40
1.0
 40
1.0
 40
2.0
 40
2.0
 40
2.0
 40
2.0
 10
156.9611870352387
 20
-165.4527037014942
 30
0.0
 10
157.9197913502677
 20
-164.8442241309603
 30
0.0
 10
158.2036235357735
 20
-163.5738516391162
 30
0.0
 10
157.5951439652563
 20
-162.6152473240859
 30
0.0
 10
157.3333008722832
 20
-162.2027373057621
 30
0.0
 10
156.9331003882621
 20
-161.896968487657
 30
0.0
 10
156.4662744585169
 20
-161.7527468808022
 30
0.0
  0
SPLINE
  5
83
330
1F
100
AcDbEntity
  8
Calque 1
 62
     7
370
    25
100
AcDbSpline
210
0.0
220
0.0
230
1.0
 70
     8
 71
     3
 72
     8
 73
     4
 74
     0
 42
0.0000000001
 43
0.0000000001
 12
1.0
 22
0.0
 32
0.0
 13
1.0
 23
0.0
 33
0.0
 40
0.0
 40
0.0
 40
0.0
 40
0.0
 40
1.0
 40
1.0
 40
1.0
 40
1.0
 10
133.0387336443407
 20
-165.4527037014942
 30
0.0
 10
136.7105542387931
 20
-167.4436448525489
 30
0.0
 10
140.8231171798929
 20
-168.4817733084992
 30
0.0
 10
144.9999603397735
 20
-168.4720592660071
 30
0.0
  0
SPLINE
  5
84
330
1F
100
AcDbEntity
  8
Calque 1
 62
     7
370
    25
100
AcDbSpline
210
0.0
220
0.0
230
1.0
 70
     8
 71
     3
 72
     8
 73
     4
 74
     0
 42
0.0000000001
 43
0.0000000001
 12
1.0
 22
0.0
 32
0.0
 13
1.0
 23
0.0
 33
0.0
 40
0.0
 40
0.0
 40
0.0
 40
0.0
 40
1.0
 40
1.0
 40
1.0
 40
1.0
 10
144.9999603397735
 20
-160.6944641540474
 30
0.0
 10
141.1535769118607
 20
-160.6967425010619
 30
0.0
 10
137.315470426615
 20
-161.0509802931573
 30
0.0
 10
133.5336462210446
 20
-161.7527468808022
 30
0.0
  0
SPLINE
  5
85
330
1F
100
AcDbEntity
  8
Calque 1
 62
     7
370
    25
100
AcDbSpline
210
0.0
220
0.0
230
1.0
 70
     8
 71
     3
 72
     8
 73
     4
 74
     0
 42
0.0000000001
 43
0.0000000001
 12
1.0
 22
0.0
 32
0.0
 13
1.0
 23
0.0
 33
0.0
 40
0.0
 40
0.0
 40
0.0
 40
0.0
 40
1.0
 40
1.0
 40
1.0
 40
1.0
 10
144.9999603397735
 20
-168.4720592660071
 30
0.0
 10
149.1768034996531
 20
-168.4817733084992
 30
0.0
 10
153.2893664407684
 20
-167.4436448525489
 30
0.0
 10
156.9611870352387
 20
-165.4527037014942
 30
0.0
  0
SPLINE
  5
86
330
1F
100
AcDbEntity
  8
Calque 1
 62
     7
370
    25
100
AcDbSpline
210
0.0
220
0.0
230
1.0
 70
     8
 71
     3
 72
     8
 73
     4
 74
     0
 42
0.0000000001
 43
0.0000000001
 12
1.0
 22
0.0
 32
0.0
 13
1.0
 23
0.0
 33
0.0
 40
0.0
 40
0.0
 40
0.0
 40
0.0
 40
1.0
 40
1.0
 40
1.0
 40
1.0
 10
156.4662744585169
 20
-161.7527468808022
 30
0.0
 10
152.6844502529452
 20
-161.0509802931573
 30
0.0
 10
148.8463437676854
 20
-160.6967425010619
 30
0.0
 10
144.9999603397735
 20
-160.6944641540474
 30
0.0
  0
SPLINE
  5
87
330
1F
100
AcDbEntity
  8
Calque 1
 62
     7
370
    25
100
AcDbSpline
210
0.0
220
0.0
230
1.0
 70
     8
 71
     3
 72
     8
 73
     4
 74
     0
 42
0.0000000001
 43
0.0000000001
 12
1.0
 22
0.0
 32
0.0
 13
1.0
 23
0.0
 33
0.0
 40
0.0
 40
0.0
 40
0.0
 40
0.0
 40
1.0
 40
1.0
 40
1.0
 40
1.0
 10
144.9999603397735
 20
-152.1535000635964
 30
0.0
 10
137.0487824534778
 20
-152.1535000635964
 30
0.0
 10
129.1853747182688
 20
-153.8153235594318
 30
0.0
 10
121.9140786676674
 20
-157.0323848774856
 30
0.0
  0
SPLINE
  5
88
330
1F
100
AcDbEntity
  8
Calque 1
 62
     7
370
    25
100
AcDbSpline
210
0.0
220
0.0
230
1.0
 70
     8
 71
     3
 72
     8
 73
     4
 74
     0
 42
0.0000000001
 43
0.0000000001
 12
1.0
 22
0.0
 32
0.0
 13
1.0
 23
0.0
 33
0.0
 40
0.0
 40
0.0
 40
0.0
 40
0.0
 40
1.0
 40
1.0
 40
1.0
 40
1.0
 10
144.9999603397735
 20
-154.7042034258354
 30
0.0
 10
137.7908557270624
 20
-154.7042034258354
 30
0.0
 10
130.647050490625
 20
-156.0703613960685
 30
0.0
 10
123.9466376268123
 20
-158.7303720673833
 30
0.0
  0
SPLINE
  5
89
330
1F
100
AcDbEntity
  8
Calque 1
 62
     7
370
    25
100
AcDbSpline
210
0.0
220
0.0
230
1.0
 70
     8
 71
     3
 72
    11
 73
     7
 74
     0
 42
0.0000000001
 43
0.0000000001
 12
1.0
 22
0.0
 32
0.0
 13
1.0
 23
0.0
 33
0.0
 40
0.0
 40
0.0
 40
0.0
 40
0.0
 40
1.0
 40
1.0
 40
1.0
 40
2.0
 40
2.0
 40
2.0
 40
2.0
 10
121.9140786676674
 20
-157.0323848774856
 30
0.0
 10
121.9380129846226
 20
-158.0053597617283
 30
0.0
 10
122.746167568898
 20
-158.774709151028
 30
0.0
 10
123.7191424531414
 20
-158.75077483409
 30
0.0
 10
123.7953355923192
 20
-158.7489005506109
 30
0.0
 10
123.8713268893818
 20
-158.7420853172085
 30
0.0
 10
123.9466376268123
 20
-158.7303720673833
 30
0.0
  0
SPLINE
  5
8A
330
1F
100
AcDbEntity
  8
Calque 1
 62
     7
370
    25
100
AcDbSpline
210
0.0
220
0.0
230
1.0
 70
     8
 71
     3
 72
     8
 73
     4
 74
     0
 42
0.0000000001
 43
0.0000000001
 12
1.0
 22
0.0
 32
0.0
 13
1.0
 23
0.0
 33
0.0
 40
0.0
 40
0.0
 40
0.0
 40
0.0
 40
1.0
 40
1.0
 40
1.0
 40
1.0
 10
168.0858420118941
 20
-157.0323848775023
 30
0.0
 10
160.8145459612937
 20
-153.8153235594318
 30
0.0
 10
152.9511382260837
 20
-152.1535000635964
 30
0.0
 10
144.9999603397735
 20
-152.1535000635964
 30
0.0
  0
SPLINE
  5
8B
330
1F
100
AcDbEntity
  8
Calque 1
 62
     7
370
    25
100
AcDbSpline
210
0.0
220
0.0
230
1.0
 70
     8
 71
     3
 72
     8
 73
     4
 74
     0
 42
0.0000000001
 43
0.0000000001
 12
1.0
 22
0.0
 32
0.0
 13
1.0
 23
0.0
 33
0.0
 40
0.0
 40
0.0
 40
0.0
 40
0.0
 40
1.0
 40
1.0
 40
1.0
 40
1.0
 10
166.0532830527476
 20
-158.7303720673833
 30
0.0
 10
159.3528701889375
 20
-156.0703613960685
 30
0.0
 10
152.2090649524834
 20
-154.7042034258354
 30
0.0
 10
144.9999603397735
 20
-154.7042034258354
 30
0.0
  0
SPLINE
  5
8C
330
1F
100
AcDbEntity
  8
Calque 1
 62
     7
370
    25
100
AcDbSpline
210
0.0
220
0.0
230
1.0
 70
     8
 71
     3
 72
    11
 73
     7
 74
     0
 42
0.0000000001
 43
0.0000000001
 12
1.0
 22
0.0
 32
0.0
 13
1.0
 23
0.0
 33
0.0
 40
0.0
 40
0.0
 40
0.0
 40
0.0
 40
1.0
 40
1.0
 40
1.0
 40
2.0
 40
2.0
 40
2.0
 40
2.0
 10
166.0532830527476
 20
-158.7303720673833
 30
0.0
 10
167.0149898000701
 20
-158.8799484994112
 30
0.0
 10
167.9158628131622
 20
-158.221586798513
 30
0.0
 10
168.0654392451887
 20
-157.2598800511739
 30
0.0
 10
168.077152495028
 20
-157.1845693137264
 30
0.0
 10
168.0839677284343
 20
-157.1085780166798
 30
0.0
 10
168.0858420118941
 20
-157.0323848774856
 30
0.0
  0
SPLINE
  5
8D
330
1F
100
AcDbEntity
  8
Calque 1
 62
     7
370
    25
100
AcDbSpline
210
0.0
220
0.0
230
1.0
 70
    11
 71
     3
 72
    17
 73
    13
 74
     0
 42
0.0000000001
 43
0.0000000001
 12
1.0
 22
0.0
 32
0.0
 13
1.0
 23
0.0
 33
0.0
 40
0.0
 40
0.0
 40
0.0
 40
0.0
 40
1.0
 40
1.0
 40
1.0
 40
2.0
 40
2.0
 40
2.0
 40
3.0
 40
3.0
 40
3.0
 40
4.0
 40
4.0
 40
4.0
 40
4.0
 10
178.3002033193024
 20
-169.5567825988821
 30
0.0
 10
178.3002033193024
 20
-168.157094350405
 30
0.0
 10
179.4082985631861
 20
-167.0224228344731
 30
0.0
 10
180.7752033186411
 20
-167.0224228344731
 30
0.0
 10
182.1421080741154
 20
-167.0224228344731
 30
0.0
 10
183.250203318003
 20
-168.157094350405
 30
0.0
 10
183.250203318003
 20
-169.5567825988821
 30
0.0
 10
183.250203318003
 20
-170.9564708473348
 30
0.0
 10
182.1421080741154
 20
-172.0911423632898
 30
0.0
 10
180.7752033186411
 20
-172.0911423632898
 30
0.0
 10
179.4082985631861
 20
-172.0911423632898
 30
0.0
 10
178.3002033193024
 20
-170.9564708473348
 30
0.0
 10
178.3002033193024
 20
-169.5567825988821
 30
0.0
  0
SPLINE
  5
8E
330
1F
100
AcDbEntity
  8
Calque 1
 62
     7
370
    25
100
AcDbSpline
210
0.0
220
0.0
230
1.0
 70
    11
 71
     3
 72
    17
 73
    13
 74
     0
 42
0.0000000001
 43
0.0000000001
 12
1.0
 22
0.0
 32
0.0
 13
1.0
 23
0.0
 33
0.0
 40
0.0
 40
0.0
 40
0.0
 40
0.0
 40
1.0
 40
1.0
 40
1.0
 40
2.0
 40
2.0
 40
2.0
 40
3.0
 40
3.0
 40
3.0
 40
4.0
 40
4.0
 40
4.0
 40
4.0
 10
106.7489771947708
 20
-169.5567825988821
 30
0.0
 10
106.7489771947708
 20
-168.1570943503986
 30
0.0
 10
107.8570724386391
 20
-167.0224228344615
 30
0.0
 10
109.2239771941204
 20
-167.0224228344615
 30
0.0
 10
110.5908819495777
 20
-167.0224228344615
 30
0.0
 10
111.6989771934714
 20
-168.1570943503986
 30
0.0
 10
111.6989771934714
 20
-169.5567825988821
 30
0.0
 10
111.6989771934714
 20
-170.9564708473425
 30
0.0
 10
110.5908819495777
 20
-172.0911423633027
 30
0.0
 10
109.2239771941204
 20
-172.0911423633027
 30
0.0
 10
107.8570724386391
 20
-172.0911423633027
 30
0.0
 10
106.7489771947708
 20
-170.9564708473425
 30
0.0
 10
106.7489771947708
 20
-169.5567825988821
 30
0.0
  0
SPLINE
  5
8F
330
1F
100
AcDbEntity
  8
Calque 1
 62
     7
370
    25
100
AcDbSpline
210
0.0
220
0.0
230
1.0
 70
     8
 71
     3
 72
     8
 73
     4
 74
     0
 42
0.0000000001
 43
0.0000000001
 12
1.0
 22
0.0
 32
0.0
 13
1.0
 23
0.0
 33
0.0
 40
0.0
 40
0.0
 40
0.0
 40
0.0
 40
1.0
 40
1.0
 40
1.0
 40
1.0
 10
216.6105600665526
 20
14.47327205641657
 30
0.0
 10
204.7210503996602
 20
15.64002463784504
 30
0.0
 10
192.7815679313252
 20
16.22426816594125
 30
0.0
 10
180.8349470042729
 20
16.22390659612046
 30
0.0
  0
SPLINE
  5
90
330
1F
100
AcDbEntity
  8
Calque 1
 62
     7
370
    25
100
AcDbSpline
210
0.0
220
0.0
230
1.0
 70
     8
 71
     3
 72
     8
 73
     4
 74
     0
 42
0.0000000001
 43
0.0000000001
 12
1.0
 22
0.0
 32
0.0
 13
1.0
 23
0.0
 33
0.0
 40
0.0
 40
0.0
 40
0.0
 40
0.0
 40
1.0
 40
1.0
 40
1.0
 40
1.0
 10
180.8349470042729
 20
16.22390659612046
 30
0.0
 10
169.5903125155864
 20
16.22424692002144
 30
0.0
 10
158.351629279801
 20
15.70666669619353
 30
0.0
 10
147.1546230836906
 20
14.67281122067044
 30
0.0
  0
SPLINE
  5
91
330
1F
100
AcDbEntity
  8
Calque 1
 62
     7
370
    25
100
AcDbSpline
210
0.0
220
0.0
230
1.0
 70
     8
 71
     3
 72
    11
 73
     7
 74
     0
 42
0.0000000001
 43
0.0000000001
 12
1.0
 22
0.0
 32
0.0
 13
1.0
 23
0.0
 33
0.0
 40
0.0
 40
0.0
 40
0.0
 40
0.0
 40
1.0
 40
1.0
 40
1.0
 40
2.0
 40
2.0
 40
2.0
 40
2.0
 10
214.6811100833706
 20
14.65962416854486
 30
0.0
 10
219.3503149542126
 20
13.60357540624879
 30
0.0
 10
223.9915500479338
 20
16.53261715790025
 30
0.0
 10
225.0475988101965
 20
21.20182202874345
 30
0.0
 10
226.0384386465053
 20
25.58271271788578
 30
0.0
 10
223.5186214534486
 20
29.99477367469964
 30
0.0
 10
219.2419115707566
 20
31.36726024677855
 30
0.0
  0
SPLINE
  5
92
330
1F
100
AcDbEntity
  8
Calque 1
 62
     7
370
    25
100
AcDbSpline
210
0.0
220
0.0
230
1.0
 70
     8
 71
     3
 72
     8
 73
     4
 74
     0
 42
0.0000000001
 43
0.0000000001
 12
1.0
 22
0.0
 32
0.0
 13
1.0
 23
0.0
 33
0.0
 40
0.0
 40
0.0
 40
0.0
 40
0.0
 40
1.0
 40
1.0
 40
1.0
 40
1.0
 10
219.2419115707566
 20
31.36726024677855
 30
0.0
 10
206.6679614541735
 20
34.4188869802548
 30
0.0
 10
193.774365828869
 20
35.95685111432262
 30
0.0
 10
180.8354100583053
 20
35.94843554945496
 30
0.0
  0
SPLINE
  5
93
330
1F
100
AcDbEntity
  8
Calque 1
 62
     7
370
    25
100
AcDbSpline
210
0.0
220
0.0
230
1.0
 70
     8
 71
     3
 72
    11
 73
     7
 74
     0
 42
0.0000000001
 43
0.0000000001
 12
1.0
 22
0.0
 32
0.0
 13
1.0
 23
0.0
 33
0.0
 40
0.0
 40
0.0
 40
0.0
 40
0.0
 40
1.0
 40
1.0
 40
1.0
 40
2.0
 40
2.0
 40
2.0
 40
2.0
 10
142.4289085458395
 20
31.36726024684335
 30
0.0
 10
137.8707408049734
 20
29.90444790064774
 30
0.0
 10
135.3614594689954
 20
25.0234791489504
 30
0.0
 10
136.8242718151917
 20
20.46531140806824
 30
0.0
 10
138.1967583872526
 20
16.18860152535821
 30
0.0
 10
142.6088193440678
 20
13.66878433228618
 30
0.0
 10
146.9897100332098
 20
14.65962416859363
 30
0.0
  0
SPLINE
  5
94
330
1F
100
AcDbEntity
  8
Calque 1
 62
     7
370
    25
100
AcDbSpline
210
0.0
220
0.0
230
1.0
 70
     8
 71
     3
 72
     8
 73
     4
 74
     0
 42
0.0000000001
 43
0.0000000001
 12
1.0
 22
0.0
 32
0.0
 13
1.0
 23
0.0
 33
0.0
 40
0.0
 40
0.0
 40
0.0
 40
0.0
 40
1.0
 40
1.0
 40
1.0
 40
1.0
 10
180.8354100583053
 20
35.94843554945496
 30
0.0
 10
167.8964542877268
 20
35.95685111433866
 30
0.0
 10
155.0028586624236
 20
34.41888698028625
 30
0.0
 10
142.4289085458395
 20
31.36726024684335
 30
0.0
  0
SPLINE
  5
95
330
1F
100
AcDbEntity
  8
Calque 1
 62
     7
370
    25
100
AcDbSpline
210
0.0
220
0.0
230
1.0
 70
     8
 71
     3
 72
     8
 73
     4
 74
     0
 42
0.0000000001
 43
0.0000000001
 12
1.0
 22
0.0
 32
0.0
 13
1.0
 23
0.0
 33
0.0
 40
0.0
 40
0.0
 40
0.0
 40
0.0
 40
1.0
 40
1.0
 40
1.0
 40
1.0
 10
168.9271512444736
 20
29.15676451208502
 30
0.0
 10
172.5989718389259
 20
27.16582336101368
 30
0.0
 10
176.7115347800425
 20
26.12769490506338
 30
0.0
 10
180.8883779399234
 20
26.13740894757218
 30
0.0
  0
SPLINE
  5
96
330
1F
100
AcDbEntity
  8
Calque 1
 62
     7
370
    25
100
AcDbSpline
210
0.0
220
0.0
230
1.0
 70
     8
 71
     3
 72
     8
 73
     4
 74
     0
 42
0.0000000001
 43
0.0000000001
 12
1.0
 22
0.0
 32
0.0
 13
1.0
 23
0.0
 33
0.0
 40
0.0
 40
0.0
 40
0.0
 40
0.0
 40
1.0
 40
1.0
 40
1.0
 40
1.0
 10
180.8883779399234
 20
33.9150040595145
 30
0.0
 10
177.0419945120102
 20
33.91272571250059
 30
0.0
 10
173.2038880267646
 20
33.55848792042193
 30
0.0
 10
169.4220638211775
 20
32.8567213327603
 30
0.0
  0
SPLINE
  5
97
330
1F
100
AcDbEntity
  8
Calque 1
 62
     7
370
    25
100
AcDbSpline
210
0.0
220
0.0
230
1.0
 70
     8
 71
     3
 72
    11
 73
     7
 74
     0
 42
0.0000000001
 43
0.0000000001
 12
1.0
 22
0.0
 32
0.0
 13
1.0
 23
0.0
 33
0.0
 40
0.0
 40
0.0
 40
0.0
 40
0.0
 40
1.0
 40
1.0
 40
1.0
 40
2.0
 40
2.0
 40
2.0
 40
2.0
 10
169.4220638211775
 20
32.8567213327603
 30
0.0
 10
168.337238409105
 20
32.52157443086204
 30
0.0
 10
167.729503899291
 20
31.37045943088025
 30
0.0
 10
168.0646508011886
 20
30.28563401880646
 30
0.0
 10
168.208872408028
 20
29.81880808906373
 30
0.0
 10
168.5146412261343
 20
29.41860760505803
 30
0.0
 10
168.9271512444736
 20
29.15676451208502
 30
0.0
  0
SPLINE
  5
98
330
1F
100
AcDbEntity
  8
Calque 1
 62
     7
370
    25
100
AcDbSpline
210
0.0
220
0.0
230
1.0
 70
     8
 71
     3
 72
     8
 73
     4
 74
     0
 42
0.0000000001
 43
0.0000000001
 12
1.0
 22
0.0
 32
0.0
 13
1.0
 23
0.0
 33
0.0
 40
0.0
 40
0.0
 40
0.0
 40
0.0
 40
1.0
 40
1.0
 40
1.0
 40
1.0
 10
180.8883779399234
 20
26.13740894757218
 30
0.0
 10
185.0652210998011
 20
26.12769490506338
 30
0.0
 10
189.177784040901
 20
27.16582336101368
 30
0.0
 10
192.8496046353713
 20
29.15676451208502
 30
0.0
  0
SPLINE
  5
99
330
1F
100
AcDbEntity
  8
Calque 1
 62
     7
370
    25
100
AcDbSpline
210
0.0
220
0.0
230
1.0
 70
     8
 71
     3
 72
     8
 73
     4
 74
     0
 42
0.0000000001
 43
0.0000000001
 12
1.0
 22
0.0
 32
0.0
 13
1.0
 23
0.0
 33
0.0
 40
0.0
 40
0.0
 40
0.0
 40
0.0
 40
1.0
 40
1.0
 40
1.0
 40
1.0
 10
192.3546920586494
 20
32.8567213327603
 30
0.0
 10
188.5728678530777
 20
33.55848792042193
 30
0.0
 10
184.7347613678346
 20
33.91272571250059
 30
0.0
 10
180.8883779399234
 20
33.9150040595145
 30
0.0
  0
SPLINE
  5
9A
330
1F
100
AcDbEntity
  8
Calque 1
 62
     7
370
    25
100
AcDbSpline
210
0.0
220
0.0
230
1.0
 70
     8
 71
     3
 72
    11
 73
     7
 74
     0
 42
0.0000000001
 43
0.0000000001
 12
1.0
 22
0.0
 32
0.0
 13
1.0
 23
0.0
 33
0.0
 40
0.0
 40
0.0
 40
0.0
 40
0.0
 40
1.0
 40
1.0
 40
1.0
 40
2.0
 40
2.0
 40
2.0
 40
2.0
 10
192.8496046353713
 20
29.15676451208502
 30
0.0
 10
193.8082089504003
 20
29.76524408260222
 30
0.0
 10
194.092041135924
 20
31.03561657446306
 30
0.0
 10
193.4835615653888
 20
31.99422088947534
 30
0.0
 10
193.2217184724158
 20
32.40673090780047
 30
0.0
 10
192.8215179883947
 20
32.71249972590491
 30
0.0
 10
192.3546920586494
 20
32.8567213327603
 30
0.0
  0
SPLINE
  5
9B
330
1F
100
AcDbEntity
  8
Calque 1
 62
     7
370
    25
100
AcDbSpline
210
0.0
220
0.0
230
1.0
 70
     8
 71
     3
 72
     8
 73
     4
 74
     0
 42
0.0000000001
 43
0.0000000001
 12
1.0
 22
0.0
 32
0.0
 13
1.0
 23
0.0
 33
0.0
 40
0.0
 40
0.0
 40
0.0
 40
0.0
 40
1.0
 40
1.0
 40
1.0
 40
1.0
 10
168.9271512444736
 20
29.15676451208502
 30
0.0
 10
172.5989718389259
 20
27.16582336101368
 30
0.0
 10
176.7115347800425
 20
26.12769490506338
 30
0.0
 10
180.8883779399234
 20
26.13740894757218
 30
0.0
  0
SPLINE
  5
9C
330
1F
100
AcDbEntity
  8
Calque 1
 62
     7
370
    25
100
AcDbSpline
210
0.0
220
0.0
230
1.0
 70
     8
 71
     3
 72
     8
 73
     4
 74
     0
 42
0.0000000001
 43
0.0000000001
 12
1.0
 22
0.0
 32
0.0
 13
1.0
 23
0.0
 33
0.0
 40
0.0
 40
0.0
 40
0.0
 40
0.0
 40
1.0
 40
1.0
 40
1.0
 40
1.0
 10
180.8883779399234
 20
33.9150040595145
 30
0.0
 10
177.0419945120102
 20
33.91272571250059
 30
0.0
 10
173.2038880267646
 20
33.55848792042193
 30
0.0
 10
169.4220638211775
 20
32.8567213327603
 30
0.0
  0
SPLINE
  5
9D
330
1F
100
AcDbEntity
  8
Calque 1
 62
     7
370
    25
100
AcDbSpline
210
0.0
220
0.0
230
1.0
 70
     8
 71
     3
 72
    11
 73
     7
 74
     0
 42
0.0000000001
 43
0.0000000001
 12
1.0
 22
0.0
 32
0.0
 13
1.0
 23
0.0
 33
0.0
 40
0.0
 40
0.0
 40
0.0
 40
0.0
 40
1.0
 40
1.0
 40
1.0
 40
2.0
 40
2.0
 40
2.0
 40
2.0
 10
169.4220638211775
 20
32.8567213327603
 30
0.0
 10
168.337238409105
 20
32.52157443086204
 30
0.0
 10
167.729503899291
 20
31.37045943088025
 30
0.0
 10
168.0646508011886
 20
30.28563401880646
 30
0.0
 10
168.208872408028
 20
29.81880808906373
 30
0.0
 10
168.5146412261343
 20
29.41860760505803
 30
0.0
 10
168.9271512444736
 20
29.15676451208502
 30
0.0
  0
SPLINE
  5
9E
330
1F
100
AcDbEntity
  8
Calque 1
 62
     7
370
    25
100
AcDbSpline
210
0.0
220
0.0
230
1.0
 70
     8
 71
     3
 72
     8
 73
     4
 74
     0
 42
0.0000000001
 43
0.0000000001
 12
1.0
 22
0.0
 32
0.0
 13
1.0
 23
0.0
 33
0.0
 40
0.0
 40
0.0
 40
0.0
 40
0.0
 40
1.0
 40
1.0
 40
1.0
 40
1.0
 10
192.3546920586494
 20
32.8567213327603
 30
0.0
 10
188.5728678530777
 20
33.55848792042193
 30
0.0
 10
184.7347613678346
 20
33.91272571250059
 30
0.0
 10
180.8883779399234
 20
33.9150040595145
 30
0.0
  0
SPLINE
  5
9F
330
1F
100
AcDbEntity
  8
Calque 1
 62
     7
370
    25
100
AcDbSpline
210
0.0
220
0.0
230
1.0
 70
    11
 71
     3
 72
    17
 73
    13
 74
     0
 42
0.0000000001
 43
0.0000000001
 12
1.0
 22
0.0
 32
0.0
 13
1.0
 23
0.0
 33
0.0
 40
0.0
 40
0.0
 40
0.0
 40
0.0
 40
1.0
 40
1.0
 40
1.0
 40
2.0
 40
2.0
 40
2.0
 40
3.0
 40
3.0
 40
3.0
 40
4.0
 40
4.0
 40
4.0
 40
4.0
 10
213.6974066335872
 20
24.06485316758705
 30
0.0
 10
213.6974066335872
 20
25.46454141606418
 30
0.0
 10
214.805501877471
 20
26.59921293199543
 30
0.0
 10
216.172406632926
 20
26.59921293199543
 30
0.0
 10
217.5393113884002
 20
26.59921293199543
 30
0.0
 10
218.6474066322878
 20
25.46454141606418
 30
0.0
 10
218.6474066322878
 20
24.06485316758705
 30
0.0
 10
218.6474066322878
 20
22.66516491913367
 30
0.0
 10
217.5393113884002
 20
21.53049340317867
 30
0.0
 10
216.172406632926
 20
21.53049340317867
 30
0.0
 10
214.805501877471
 20
21.53049340317867
 30
0.0
 10
213.6974066335872
 20
22.66516491913367
 30
0.0
 10
213.6974066335872
 20
24.06485316758705
 30
0.0
  0
SPLINE
  5
A0
330
1F
100
AcDbEntity
  8
Calque 1
 62
     7
370
    25
100
AcDbSpline
210
0.0
220
0.0
230
1.0
 70
    11
 71
     3
 72
    17
 73
    13
 74
     0
 42
0.0000000001
 43
0.0000000001
 12
1.0
 22
0.0
 32
0.0
 13
1.0
 23
0.0
 33
0.0
 40
0.0
 40
0.0
 40
0.0
 40
0.0
 40
1.0
 40
1.0
 40
1.0
 40
2.0
 40
2.0
 40
2.0
 40
3.0
 40
3.0
 40
3.0
 40
4.0
 40
4.0
 40
4.0
 40
4.0
 10
142.1461805090556
 20
24.06485316758705
 30
0.0
 10
142.1461805090556
 20
25.46454141607059
 30
0.0
 10
143.2542757529239
 20
26.59921293200698
 30
0.0
 10
144.6211805084053
 20
26.59921293200698
 30
0.0
 10
145.9880852638622
 20
26.59921293200698
 30
0.0
 10
147.0961805077562
 20
25.46454141607059
 30
0.0
 10
147.0961805077562
 20
24.06485316758705
 30
0.0
 10
147.0961805077562
 20
22.66516491912661
 30
0.0
 10
145.9880852638622
 20
21.53049340316648
 30
0.0
 10
144.6211805084053
 20
21.53049340316648
 30
0.0
 10
143.2542757529239
 20
21.53049340316648
 30
0.0
 10
142.1461805090556
 20
22.66516491912661
 30
0.0
 10
142.1461805090556
 20
24.06485316758705
 30
0.0
  0
SPLINE
  5
A1
330
1F
100
AcDbEntity
  8
Calque 1
 62
     7
370
    25
100
AcDbSpline
210
0.0
220
0.0
230
1.0
 70
     8
 71
     3
 72
     8
 73
     4
 74
     0
 42
0.0000000001
 43
0.0000000001
 12
1.0
 22
0.0
 32
0.0
 13
1.0
 23
0.0
 33
0.0
 40
0.0
 40
0.0
 40
0.0
 40
0.0
 40
1.0
 40
1.0
 40
1.0
 40
1.0
 10
180.7755986173102
 20
-36.46294594413705
 30
0.0
 10
168.8860889504178
 20
-35.29619336270858
 30
0.0
 10
156.9466064820828
 20
-34.71194983461236
 30
0.0
 10
144.9999855550305
 20
-34.71231140443315
 30
0.0
  0
SPLINE
  5
A2
330
1F
100
AcDbEntity
  8
Calque 1
 62
     7
370
    25
100
AcDbSpline
210
0.0
220
0.0
230
1.0
 70
     8
 71
     3
 72
     8
 73
     4
 74
     0
 42
0.0000000001
 43
0.0000000001
 12
1.0
 22
0.0
 32
0.0
 13
1.0
 23
0.0
 33
0.0
 40
0.0
 40
0.0
 40
0.0
 40
0.0
 40
1.0
 40
1.0
 40
1.0
 40
1.0
 10
144.9999855550305
 20
-34.71231140443315
 30
0.0
 10
133.755351066344
 20
-34.71197108053217
 30
0.0
 10
122.5166678305586
 20
-35.22955130436009
 30
0.0
 10
111.3196616344482
 20
-36.26340677988317
 30
0.0
  0
SPLINE
  5
A3
330
1F
100
AcDbEntity
  8
Calque 1
 62
     7
370
    25
100
AcDbSpline
210
0.0
220
0.0
230
1.0
 70
     8
 71
     3
 72
    11
 73
     7
 74
     0
 42
0.0000000001
 43
0.0000000001
 12
1.0
 22
0.0
 32
0.0
 13
1.0
 23
0.0
 33
0.0
 40
0.0
 40
0.0
 40
0.0
 40
0.0
 40
1.0
 40
1.0
 40
1.0
 40
2.0
 40
2.0
 40
2.0
 40
2.0
 10
178.8461486341282
 20
-36.27659383200875
 30
0.0
 10
183.5153535049702
 20
-37.33264259430482
 30
0.0
 10
188.1565885986914
 20
-34.40360084265336
 30
0.0
 10
189.2126373609541
 20
-29.73439597181016
 30
0.0
 10
190.2034771972629
 20
-25.35350528266783
 30
0.0
 10
187.6836600042062
 20
-20.94144432585397
 30
0.0
 10
183.4069501215142
 20
-19.56895775377507
 30
0.0
  0
SPLINE
  5
A4
330
1F
100
AcDbEntity
  8
Calque 1
 62
     7
370
    25
100
AcDbSpline
210
0.0
220
0.0
230
1.0
 70
     8
 71
     3
 72
     8
 73
     4
 74
     0
 42
0.0000000001
 43
0.0000000001
 12
1.0
 22
0.0
 32
0.0
 13
1.0
 23
0.0
 33
0.0
 40
0.0
 40
0.0
 40
0.0
 40
0.0
 40
1.0
 40
1.0
 40
1.0
 40
1.0
 10
183.4069501215142
 20
-19.56895775377507
 30
0.0
 10
170.8330000049311
 20
-16.51733102029881
 30
0.0
 10
157.9394043796266
 20
-14.97936688623099
 30
0.0
 10
145.0004486090629
 20
-14.98778245109865
 30
0.0
  0
SPLINE
  5
A5
330
1F
100
AcDbEntity
  8
Calque 1
 62
     7
370
    25
100
AcDbSpline
210
0.0
220
0.0
230
1.0
 70
     8
 71
     3
 72
    11
 73
     7
 74
     0
 42
0.0000000001
 43
0.0000000001
 12
1.0
 22
0.0
 32
0.0
 13
1.0
 23
0.0
 33
0.0
 40
0.0
 40
0.0
 40
0.0
 40
0.0
 40
1.0
 40
1.0
 40
1.0
 40
2.0
 40
2.0
 40
2.0
 40
2.0
 10
106.5939470965971
 20
-19.56895775371026
 30
0.0
 10
102.035779355731
 20
-21.03177009990588
 30
0.0
 10
99.52649801975302
 20
-25.91273885160322
 30
0.0
 10
100.9893103659493
 20
-30.47090659248537
 30
0.0
 10
102.3617969380102
 20
-34.74761647519541
 30
0.0
 10
106.7738578948254
 20
-37.26743366826743
 30
0.0
 10
111.1547485839677
 20
-36.27659383195998
 30
0.0
  0
SPLINE
  5
A6
330
1F
100
AcDbEntity
  8
Calque 1
 62
     7
370
    25
100
AcDbSpline
210
0.0
220
0.0
230
1.0
 70
     8
 71
     3
 72
     8
 73
     4
 74
     0
 42
0.0000000001
 43
0.0000000001
 12
1.0
 22
0.0
 32
0.0
 13
1.0
 23
0.0
 33
0.0
 40
0.0
 40
0.0
 40
0.0
 40
0.0
 40
1.0
 40
1.0
 40
1.0
 40
1.0
 10
145.0004486090629
 20
-14.98778245109865
 30
0.0
 10
132.0614928384847
 20
-14.97936688621495
 30
0.0
 10
119.1678972131816
 20
-16.51733102026737
 30
0.0
 10
106.5939470965971
 20
-19.56895775371026
 30
0.0
  0
SPLINE
  5
A7
330
1F
100
AcDbEntity
  8
Calque 1
 62
     7
370
    25
100
AcDbSpline
210
0.0
220
0.0
230
1.0
 70
    11
 71
     3
 72
    17
 73
    13
 74
     0
 42
0.0000000001
 43
0.0000000001
 12
1.0
 22
0.0
 32
0.0
 13
1.0
 23
0.0
 33
0.0
 40
0.0
 40
0.0
 40
0.0
 40
0.0
 40
1.0
 40
1.0
 40
1.0
 40
2.0
 40
2.0
 40
2.0
 40
3.0
 40
3.0
 40
3.0
 40
4.0
 40
4.0
 40
4.0
 40
4.0
 10
177.8624451843448
 20
-26.87136483296689
 30
0.0
 10
177.8624451843448
 20
-25.47167658448976
 30
0.0
 10
178.9705404282286
 20
-24.33700506855786
 30
0.0
 10
180.3374451836836
 20
-24.33700506855786
 30
0.0
 10
181.7043499391578
 20
-24.33700506855786
 30
0.0
 10
182.8124451830454
 20
-25.47167658448976
 30
0.0
 10
182.8124451830454
 20
-26.87136483296689
 30
0.0
 10
182.8124451830454
 20
-28.27105308141963
 30
0.0
 10
181.7043499391578
 20
-29.40572459737462
 30
0.0
 10
180.3374451836836
 20
-29.40572459737462
 30
0.0
 10
178.9705404282286
 20
-29.40572459737462
 30
0.0
 10
177.8624451843448
 20
-28.27105308141963
 30
0.0
 10
177.8624451843448
 20
-26.87136483296689
 30
0.0
  0
SPLINE
  5
A8
330
1F
100
AcDbEntity
  8
Calque 1
 62
     7
370
    25
100
AcDbSpline
210
0.0
220
0.0
230
1.0
 70
    11
 71
     3
 72
    17
 73
    13
 74
     0
 42
0.0000000001
 43
0.0000000001
 12
1.0
 22
0.0
 32
0.0
 13
1.0
 23
0.0
 33
0.0
 40
0.0
 40
0.0
 40
0.0
 40
0.0
 40
1.0
 40
1.0
 40
1.0
 40
2.0
 40
2.0
 40
2.0
 40
3.0
 40
3.0
 40
3.0
 40
4.0
 40
4.0
 40
4.0
 40
4.0
 10
106.3112190598132
 20
-26.87136483296689
 30
0.0
 10
106.3112190598132
 20
-25.47167658448334
 30
0.0
 10
107.4193143036815
 20
-24.33700506854631
 30
0.0
 10
108.7862190591629
 20
-24.33700506854631
 30
0.0
 10
110.1531238146201
 20
-24.33700506854631
 30
0.0
 10
111.2612190585138
 20
-25.47167658448334
 30
0.0
 10
111.2612190585138
 20
-26.87136483296689
 30
0.0
 10
111.2612190585138
 20
-28.27105308142733
 30
0.0
 10
110.1531238146201
 20
-29.40572459738745
 30
0.0
 10
108.7862190591629
 20
-29.40572459738745
 30
0.0
 10
107.4193143036815
 20
-29.40572459738745
 30
0.0
 10
106.3112190598132
 20
-28.27105308142733
 30
0.0
 10
106.3112190598132
 20
-26.87136483296689
 30
0.0
  0
SPLINE
  5
A9
330
1F
100
AcDbEntity
  8
Calque 1
 62
     7
370
    25
100
AcDbSpline
210
0.0
220
0.0
230
1.0
 70
     8
 71
     3
 72
    11
 73
     7
 74
     0
 42
0.0000000001
 43
0.0000000001
 12
1.0
 22
0.0
 32
0.0
 13
1.0
 23
0.0
 33
0.0
 40
0.0
 40
0.0
 40
0.0
 40
0.0
 40
1.0
 40
1.0
 40
1.0
 40
2.0
 40
2.0
 40
2.0
 40
2.0
 10
133.5336570275799
 20
-18.69359496926778
 30
0.0
 10
132.448831615507
 20
-19.02874187118209
 30
0.0
 10
131.8410971056934
 20
-20.17985687114783
 30
0.0
 10
132.1762440075759
 20
-21.26468228322163
 30
0.0
 10
132.3204656144297
 20
-21.73150821296499
 30
0.0
 10
132.6262344325367
 20
-22.13170869697005
 30
0.0
 10
133.038744450876
 20
-22.39355178995975
 30
0.0
  0
SPLINE
  5
AA
330
1F
100
AcDbEntity
  8
Calque 1
 62
     7
370
    25
100
AcDbSpline
210
0.0
220
0.0
230
1.0
 70
     8
 71
     3
 72
    11
 73
     7
 74
     0
 42
0.0000000001
 43
0.0000000001
 12
1.0
 22
0.0
 32
0.0
 13
1.0
 23
0.0
 33
0.0
 40
0.0
 40
0.0
 40
0.0
 40
0.0
 40
1.0
 40
1.0
 40
1.0
 40
2.0
 40
2.0
 40
2.0
 40
2.0
 10
156.961197841774
 20
-22.39355178995975
 30
0.0
 10
157.9198021568029
 20
-21.78507221942522
 30
0.0
 10
158.2036343423087
 20
-20.5146997275817
 30
0.0
 10
157.5951547717915
 20
-19.55609541255082
 30
0.0
 10
157.3333116788185
 20
-19.14358539422761
 30
0.0
 10
156.9331111947974
 20
-18.8378165761219
 30
0.0
 10
156.4662852650521
 20
-18.69359496926778
 30
0.0
  0
SPLINE
  5
AB
330
1F
100
AcDbEntity
  8
Calque 1
 62
     7
370
    25
100
AcDbSpline
210
0.0
220
0.0
230
1.0
 70
     8
 71
     3
 72
    11
 73
     7
 74
     0
 42
0.0000000001
 43
0.0000000001
 12
1.0
 22
0.0
 32
0.0
 13
1.0
 23
0.0
 33
0.0
 40
0.0
 40
0.0
 40
0.0
 40
0.0
 40
1.0
 40
1.0
 40
1.0
 40
2.0
 40
2.0
 40
2.0
 40
2.0
 10
133.5336570275799
 20
-18.69359496926778
 30
0.0
 10
132.448831615507
 20
-19.02874187118209
 30
0.0
 10
131.8410971056934
 20
-20.17985687114783
 30
0.0
 10
132.1762440075759
 20
-21.26468228322163
 30
0.0
 10
132.3204656144297
 20
-21.73150821296499
 30
0.0
 10
132.6262344325367
 20
-22.13170869697005
 30
0.0
 10
133.038744450876
 20
-22.39355178995975
 30
0.0
  0
SPLINE
  5
AC
330
1F
100
AcDbEntity
  8
Calque 1
 62
     7
370
    25
100
AcDbSpline
210
0.0
220
0.0
230
1.0
 70
     8
 71
     3
 72
     8
 73
     4
 74
     0
 42
0.0000000001
 43
0.0000000001
 12
1.0
 22
0.0
 32
0.0
 13
1.0
 23
0.0
 33
0.0
 40
0.0
 40
0.0
 40
0.0
 40
0.0
 40
1.0
 40
1.0
 40
1.0
 40
1.0
 10
133.038744450876
 20
-22.39355178995975
 30
0.0
 10
136.7105650453283
 20
-24.38449294101376
 30
0.0
 10
140.8231279864282
 20
-25.42262139696406
 30
0.0
 10
144.9999711463088
 20
-25.41290735447194
 30
0.0
  0
SPLINE
  5
AD
330
1F
100
AcDbEntity
  8
Calque 1
 62
     7
370
    25
100
AcDbSpline
210
0.0
220
0.0
230
1.0
 70
     8
 71
     3
 72
     8
 73
     4
 74
     0
 42
0.0000000001
 43
0.0000000001
 12
1.0
 22
0.0
 32
0.0
 13
1.0
 23
0.0
 33
0.0
 40
0.0
 40
0.0
 40
0.0
 40
0.0
 40
1.0
 40
1.0
 40
1.0
 40
1.0
 10
144.9999711463088
 20
-17.6353122425123
 30
0.0
 10
141.1535877183959
 20
-17.63759058952749
 30
0.0
 10
137.3154812331503
 20
-17.99182838162219
 30
0.0
 10
133.5336570275799
 20
-18.69359496926778
 30
0.0
  0
SPLINE
  5
AE
330
1F
100
AcDbEntity
  8
Calque 1
 62
     7
370
    25
100
AcDbSpline
210
0.0
220
0.0
230
1.0
 70
     8
 71
     3
 72
     8
 73
     4
 74
     0
 42
0.0000000001
 43
0.0000000001
 12
1.0
 22
0.0
 32
0.0
 13
1.0
 23
0.0
 33
0.0
 40
0.0
 40
0.0
 40
0.0
 40
0.0
 40
1.0
 40
1.0
 40
1.0
 40
1.0
 10
144.9999711463088
 20
-25.41290735447194
 30
0.0
 10
149.1768143061884
 20
-25.42262139696406
 30
0.0
 10
153.2893772473037
 20
-24.38449294101376
 30
0.0
 10
156.961197841774
 20
-22.39355178995975
 30
0.0
  0
SPLINE
  5
AF
330
1F
100
AcDbEntity
  8
Calque 1
 62
     7
370
    25
100
AcDbSpline
210
0.0
220
0.0
230
1.0
 70
     8
 71
     3
 72
     8
 73
     4
 74
     0
 42
0.0000000001
 43
0.0000000001
 12
1.0
 22
0.0
 32
0.0
 13
1.0
 23
0.0
 33
0.0
 40
0.0
 40
0.0
 40
0.0
 40
0.0
 40
1.0
 40
1.0
 40
1.0
 40
1.0
 10
156.4662852650521
 20
-18.69359496926778
 30
0.0
 10
152.6844610594804
 20
-17.99182838162219
 30
0.0
 10
148.8463545742206
 20
-17.63759058952749
 30
0.0
 10
144.9999711463088
 20
-17.6353122425123
 30
0.0
  0
SPLINE
  5
B0
330
1F
100
AcDbEntity
  8
Calque 1
 62
     7
370
    25
100
AcDbSpline
210
0.0
220
0.0
230
1.0
 70
     8
 71
     3
 72
    11
 73
     7
 74
     0
 42
0.0000000001
 43
0.0000000001
 12
1.0
 22
0.0
 32
0.0
 13
1.0
 23
0.0
 33
0.0
 40
0.0
 40
0.0
 40
0.0
 40
0.0
 40
1.0
 40
1.0
 40
1.0
 40
2.0
 40
2.0
 40
2.0
 40
2.0
 10
156.961197841774
 20
-22.39355178995975
 30
0.0
 10
157.9198021568029
 20
-21.78507221942522
 30
0.0
 10
158.2036343423087
 20
-20.5146997275817
 30
0.0
 10
157.5951547717915
 20
-19.55609541255082
 30
0.0
 10
157.3333116788185
 20
-19.14358539422761
 30
0.0
 10
156.9331111947974
 20
-18.8378165761219
 30
0.0
 10
156.4662852650521
 20
-18.69359496926778
 30
0.0
  0
SPLINE
  5
B1
330
1F
100
AcDbEntity
  8
Calque 1
 62
     7
370
    25
100
AcDbSpline
210
0.0
220
0.0
230
1.0
 70
     8
 71
     3
 72
     8
 73
     4
 74
     0
 42
0.0000000001
 43
0.0000000001
 12
1.0
 22
0.0
 32
0.0
 13
1.0
 23
0.0
 33
0.0
 40
0.0
 40
0.0
 40
0.0
 40
0.0
 40
1.0
 40
1.0
 40
1.0
 40
1.0
 10
133.038744450876
 20
-22.39355178995975
 30
0.0
 10
136.7105650453283
 20
-24.38449294101376
 30
0.0
 10
140.8231279864282
 20
-25.42262139696406
 30
0.0
 10
144.9999711463088
 20
-25.41290735447194
 30
0.0
  0
SPLINE
  5
B2
330
1F
100
AcDbEntity
  8
Calque 1
 62
     7
370
    25
100
AcDbSpline
210
0.0
220
0.0
230
1.0
 70
     8
 71
     3
 72
     8
 73
     4
 74
     0
 42
0.0000000001
 43
0.0000000001
 12
1.0
 22
0.0
 32
0.0
 13
1.0
 23
0.0
 33
0.0
 40
0.0
 40
0.0
 40
0.0
 40
0.0
 40
1.0
 40
1.0
 40
1.0
 40
1.0
 10
144.9999711463088
 20
-17.6353122425123
 30
0.0
 10
141.1535877183959
 20
-17.63759058952749
 30
0.0
 10
137.3154812331503
 20
-17.99182838162219
 30
0.0
 10
133.5336570275799
 20
-18.69359496926778
 30
0.0
  0
SPLINE
  5
B3
330
1F
100
AcDbEntity
  8
Calque 1
 62
     7
370
    25
100
AcDbSpline
210
0.0
220
0.0
230
1.0
 70
     8
 71
     3
 72
     8
 73
     4
 74
     0
 42
0.0000000001
 43
0.0000000001
 12
1.0
 22
0.0
 32
0.0
 13
1.0
 23
0.0
 33
0.0
 40
0.0
 40
0.0
 40
0.0
 40
0.0
 40
1.0
 40
1.0
 40
1.0
 40
1.0
 10
144.9999711463088
 20
-25.41290735447194
 30
0.0
 10
149.1768143061884
 20
-25.42262139696406
 30
0.0
 10
153.2893772473037
 20
-24.38449294101376
 30
0.0
 10
156.961197841774
 20
-22.39355178995975
 30
0.0
  0
SPLINE
  5
B4
330
1F
100
AcDbEntity
  8
Calque 1
 62
     7
370
    25
100
AcDbSpline
210
0.0
220
0.0
230
1.0
 70
     8
 71
     3
 72
     8
 73
     4
 74
     0
 42
0.0000000001
 43
0.0000000001
 12
1.0
 22
0.0
 32
0.0
 13
1.0
 23
0.0
 33
0.0
 40
0.0
 40
0.0
 40
0.0
 40
0.0
 40
1.0
 40
1.0
 40
1.0
 40
1.0
 10
156.4662852650521
 20
-18.69359496926778
 30
0.0
 10
152.6844610594804
 20
-17.99182838162219
 30
0.0
 10
148.8463545742206
 20
-17.63759058952749
 30
0.0
 10
144.9999711463088
 20
-17.6353122425123
 30
0.0
  0
SPLINE
  5
B5
330
1F
100
AcDbEntity
  8
Calque 1
 62
     7
370
    25
100
AcDbSpline
210
0.0
220
0.0
230
1.0
 70
     8
 71
     3
 72
     8
 73
     4
 74
     0
 42
0.0000000001
 43
0.0000000001
 12
1.0
 22
0.0
 32
0.0
 13
1.0
 23
0.0
 33
0.0
 40
0.0
 40
0.0
 40
0.0
 40
0.0
 40
1.0
 40
1.0
 40
1.0
 40
1.0
 10
180.7756130260319
 20
-61.44563396892303
 30
0.0
 10
168.8861033591396
 20
-60.27888138749456
 30
0.0
 10
156.9466208908046
 20
-59.69463785939835
 30
0.0
 10
144.9999999637523
 20
-59.69499942921914
 30
0.0
  0
SPLINE
  5
B6
330
1F
100
AcDbEntity
  8
Calque 1
 62
     7
370
    25
100
AcDbSpline
210
0.0
220
0.0
230
1.0
 70
     8
 71
     3
 72
     8
 73
     4
 74
     0
 42
0.0000000001
 43
0.0000000001
 12
1.0
 22
0.0
 32
0.0
 13
1.0
 23
0.0
 33
0.0
 40
0.0
 40
0.0
 40
0.0
 40
0.0
 40
1.0
 40
1.0
 40
1.0
 40
1.0
 10
144.9999999637523
 20
-59.69499942921914
 30
0.0
 10
133.7553654750658
 20
-59.69465910531815
 30
0.0
 10
122.5166822392803
 20
-60.21223932914607
 30
0.0
 10
111.3196760431699
 20
-61.24609480466916
 30
0.0
  0
SPLINE
  5
B7
330
1F
100
AcDbEntity
  8
Calque 1
 62
     7
370
    25
100
AcDbSpline
210
0.0
220
0.0
230
1.0
 70
     8
 71
     3
 72
    11
 73
     7
 74
     0
 42
0.0000000001
 43
0.0000000001
 12
1.0
 22
0.0
 32
0.0
 13
1.0
 23
0.0
 33
0.0
 40
0.0
 40
0.0
 40
0.0
 40
0.0
 40
1.0
 40
1.0
 40
1.0
 40
2.0
 40
2.0
 40
2.0
 40
2.0
 10
178.84616304285
 20
-61.25928185679474
 30
0.0
 10
183.5153679136919
 20
-62.3153306190908
 30
0.0
 10
188.1566030074132
 20
-59.38628886743935
 30
0.0
 10
189.2126517696759
 20
-54.71708399659614
 30
0.0
 10
190.2034916059847
 20
-50.33619330745382
 30
0.0
 10
187.683674412928
 20
-45.92413235063996
 30
0.0
 10
183.406964530236
 20
-44.55164577856105
 30
0.0
  0
SPLINE
  5
B8
330
1F
100
AcDbEntity
  8
Calque 1
 62
     7
370
    25
100
AcDbSpline
210
0.0
220
0.0
230
1.0
 70
     8
 71
     3
 72
     8
 73
     4
 74
     0
 42
0.0000000001
 43
0.0000000001
 12
1.0
 22
0.0
 32
0.0
 13
1.0
 23
0.0
 33
0.0
 40
0.0
 40
0.0
 40
0.0
 40
0.0
 40
1.0
 40
1.0
 40
1.0
 40
1.0
 10
183.406964530236
 20
-44.55164577856105
 30
0.0
 10
170.8330144136528
 20
-41.50001904508415
 30
0.0
 10
157.9394187883484
 20
-39.96205491101633
 30
0.0
 10
145.0004630177847
 20
-39.97047047588463
 30
0.0
  0
SPLINE
  5
B9
330
1F
100
AcDbEntity
  8
Calque 1
 62
     7
370
    25
100
AcDbSpline
210
0.0
220
0.0
230
1.0
 70
     8
 71
     3
 72
    11
 73
     7
 74
     0
 42
0.0000000001
 43
0.0000000001
 12
1.0
 22
0.0
 32
0.0
 13
1.0
 23
0.0
 33
0.0
 40
0.0
 40
0.0
 40
0.0
 40
0.0
 40
1.0
 40
1.0
 40
1.0
 40
2.0
 40
2.0
 40
2.0
 40
2.0
 10
106.5939615053189
 20
-44.5516457784956
 30
0.0
 10
102.0357937644528
 20
-46.01445812469186
 30
0.0
 10
99.5265124284748
 20
-50.89542687638919
 30
0.0
 10
100.9893247746711
 20
-55.45359461727136
 30
0.0
 10
102.361811346732
 20
-59.73030449998139
 30
0.0
 10
106.7738723035472
 20
-62.25012169305341
 30
0.0
 10
111.1547629926895
 20
-61.25928185674596
 30
0.0
  0
SPLINE
  5
BA
330
1F
100
AcDbEntity
  8
Calque 1
 62
     7
370
    25
100
AcDbSpline
210
0.0
220
0.0
230
1.0
 70
     8
 71
     3
 72
     8
 73
     4
 74
     0
 42
0.0000000001
 43
0.0000000001
 12
1.0
 22
0.0
 32
0.0
 13
1.0
 23
0.0
 33
0.0
 40
0.0
 40
0.0
 40
0.0
 40
0.0
 40
1.0
 40
1.0
 40
1.0
 40
1.0
 10
145.0004630177847
 20
-39.97047047588463
 30
0.0
 10
132.0615072472062
 20
-39.96205491100093
 30
0.0
 10
119.167911621903
 20
-41.50001904505335
 30
0.0
 10
106.5939615053189
 20
-44.5516457784956
 30
0.0
  0
SPLINE
  5
BB
330
1F
100
AcDbEntity
  8
Calque 1
 62
     7
370
    25
100
AcDbSpline
210
0.0
220
0.0
230
1.0
 70
    11
 71
     3
 72
    17
 73
    13
 74
     0
 42
0.0000000001
 43
0.0000000001
 12
1.0
 22
0.0
 32
0.0
 13
1.0
 23
0.0
 33
0.0
 40
0.0
 40
0.0
 40
0.0
 40
0.0
 40
1.0
 40
1.0
 40
1.0
 40
2.0
 40
2.0
 40
2.0
 40
3.0
 40
3.0
 40
3.0
 40
4.0
 40
4.0
 40
4.0
 40
4.0
 10
177.8624595930666
 20
-51.85405285775222
 30
0.0
 10
177.8624595930666
 20
-50.4543646092751
 30
0.0
 10
178.9705548369503
 20
-49.3196930933432
 30
0.0
 10
180.3374595924053
 20
-49.3196930933432
 30
0.0
 10
181.7043643478796
 20
-49.3196930933432
 30
0.0
 10
182.8124595917672
 20
-50.4543646092751
 30
0.0
 10
182.8124595917672
 20
-51.85405285775222
 30
0.0
 10
182.8124595917672
 20
-53.25374110620497
 30
0.0
 10
181.7043643478796
 20
-54.38841262215996
 30
0.0
 10
180.3374595924053
 20
-54.38841262215996
 30
0.0
 10
178.9705548369503
 20
-54.38841262215996
 30
0.0
 10
177.8624595930666
 20
-53.25374110620497
 30
0.0
 10
177.8624595930666
 20
-51.85405285775222
 30
0.0
  0
SPLINE
  5
BC
330
1F
100
AcDbEntity
  8
Calque 1
 62
     7
370
    25
100
AcDbSpline
210
0.0
220
0.0
230
1.0
 70
    11
 71
     3
 72
    17
 73
    13
 74
     0
 42
0.0000000001
 43
0.0000000001
 12
1.0
 22
0.0
 32
0.0
 13
1.0
 23
0.0
 33
0.0
 40
0.0
 40
0.0
 40
0.0
 40
0.0
 40
1.0
 40
1.0
 40
1.0
 40
2.0
 40
2.0
 40
2.0
 40
3.0
 40
3.0
 40
3.0
 40
4.0
 40
4.0
 40
4.0
 40
4.0
 10
106.311233468535
 20
-51.85405285775222
 30
0.0
 10
106.311233468535
 20
-50.45436460926868
 30
0.0
 10
107.4193287124033
 20
-49.31969309333166
 30
0.0
 10
108.7862334678847
 20
-49.31969309333166
 30
0.0
 10
110.1531382233419
 20
-49.31969309333166
 30
0.0
 10
111.2612334672356
 20
-50.45436460926868
 30
0.0
 10
111.2612334672356
 20
-51.85405285775222
 30
0.0
 10
111.2612334672356
 20
-53.25374110621267
 30
0.0
 10
110.1531382233419
 20
-54.38841262217279
 30
0.0
 10
108.7862334678847
 20
-54.38841262217279
 30
0.0
 10
107.4193287124033
 20
-54.38841262217279
 30
0.0
 10
106.311233468535
 20
-53.25374110621267
 30
0.0
 10
106.311233468535
 20
-51.85405285775222
 30
0.0
  0
SPLINE
  5
BD
330
1F
100
AcDbEntity
  8
Calque 1
 62
     7
370
    25
100
AcDbSpline
210
0.0
220
0.0
230
1.0
 70
     8
 71
     3
 72
    11
 73
     7
 74
     0
 42
0.0000000001
 43
0.0000000001
 12
1.0
 22
0.0
 32
0.0
 13
1.0
 23
0.0
 33
0.0
 40
0.0
 40
0.0
 40
0.0
 40
0.0
 40
1.0
 40
1.0
 40
1.0
 40
2.0
 40
2.0
 40
2.0
 40
2.0
 10
133.5336714363013
 20
-43.67628299405312
 30
0.0
 10
132.4488460242288
 20
-44.01142989596743
 30
0.0
 10
131.8411115144148
 20
-45.16254489593317
 30
0.0
 10
132.1762584162977
 20
-46.24737030800697
 30
0.0
 10
132.3204800231518
 20
-46.71419623775098
 30
0.0
 10
132.6262488412582
 20
-47.11439672175539
 30
0.0
 10
133.0387588595974
 20
-47.37623981474509
 30
0.0
  0
SPLINE
  5
BE
330
1F
100
AcDbEntity
  8
Calque 1
 62
     7
370
    25
100
AcDbSpline
210
0.0
220
0.0
230
1.0
 70
     8
 71
     3
 72
    11
 73
     7
 74
     0
 42
0.0000000001
 43
0.0000000001
 12
1.0
 22
0.0
 32
0.0
 13
1.0
 23
0.0
 33
0.0
 40
0.0
 40
0.0
 40
0.0
 40
0.0
 40
1.0
 40
1.0
 40
1.0
 40
2.0
 40
2.0
 40
2.0
 40
2.0
 10
156.9612122504957
 20
-47.37623981474509
 30
0.0
 10
157.9198165655247
 20
-46.7677602442112
 30
0.0
 10
158.2036487510305
 20
-45.49738775236705
 30
0.0
 10
157.5951691805133
 20
-44.5387834373368
 30
0.0
 10
157.3333260875403
 20
-44.12627341901295
 30
0.0
 10
156.9331256035192
 20
-43.82050460090787
 30
0.0
 10
156.4662996737739
 20
-43.67628299405312
 30
0.0
  0
SPLINE
  5
BF
330
1F
100
AcDbEntity
  8
Calque 1
 62
     7
370
    25
100
AcDbSpline
210
0.0
220
0.0
230
1.0
 70
     8
 71
     3
 72
    11
 73
     7
 74
     0
 42
0.0000000001
 43
0.0000000001
 12
1.0
 22
0.0
 32
0.0
 13
1.0
 23
0.0
 33
0.0
 40
0.0
 40
0.0
 40
0.0
 40
0.0
 40
1.0
 40
1.0
 40
1.0
 40
2.0
 40
2.0
 40
2.0
 40
2.0
 10
133.5336714363013
 20
-43.67628299405312
 30
0.0
 10
132.4488460242288
 20
-44.01142989596743
 30
0.0
 10
131.8411115144148
 20
-45.16254489593317
 30
0.0
 10
132.1762584162977
 20
-46.24737030800697
 30
0.0
 10
132.3204800231518
 20
-46.71419623775098
 30
0.0
 10
132.6262488412582
 20
-47.11439672175539
 30
0.0
 10
133.0387588595974
 20
-47.37623981474509
 30
0.0
  0
SPLINE
  5
C0
330
1F
100
AcDbEntity
  8
Calque 1
 62
     7
370
    25
100
AcDbSpline
210
0.0
220
0.0
230
1.0
 70
     8
 71
     3
 72
     8
 73
     4
 74
     0
 42
0.0000000001
 43
0.0000000001
 12
1.0
 22
0.0
 32
0.0
 13
1.0
 23
0.0
 33
0.0
 40
0.0
 40
0.0
 40
0.0
 40
0.0
 40
1.0
 40
1.0
 40
1.0
 40
1.0
 10
133.0387588595974
 20
-47.37623981474509
 30
0.0
 10
136.7105794540498
 20
-49.36718096579974
 30
0.0
 10
140.8231423951496
 20
-50.40530942175005
 30
0.0
 10
144.9999855550305
 20
-50.39559537925793
 30
0.0
  0
SPLINE
  5
C1
330
1F
100
AcDbEntity
  8
Calque 1
 62
     7
370
    25
100
AcDbSpline
210
0.0
220
0.0
230
1.0
 70
     8
 71
     3
 72
     8
 73
     4
 74
     0
 42
0.0000000001
 43
0.0000000001
 12
1.0
 22
0.0
 32
0.0
 13
1.0
 23
0.0
 33
0.0
 40
0.0
 40
0.0
 40
0.0
 40
0.0
 40
1.0
 40
1.0
 40
1.0
 40
1.0
 10
144.9999855550305
 20
-42.61800026729828
 30
0.0
 10
141.1536021271174
 20
-42.62027861431283
 30
0.0
 10
137.3154956418717
 20
-42.97451640640818
 30
0.0
 10
133.5336714363013
 20
-43.67628299405312
 30
0.0
  0
SPLINE
  5
C2
330
1F
100
AcDbEntity
  8
Calque 1
 62
     7
370
    25
100
AcDbSpline
210
0.0
220
0.0
230
1.0
 70
     8
 71
     3
 72
     8
 73
     4
 74
     0
 42
0.0000000001
 43
0.0000000001
 12
1.0
 22
0.0
 32
0.0
 13
1.0
 23
0.0
 33
0.0
 40
0.0
 40
0.0
 40
0.0
 40
0.0
 40
1.0
 40
1.0
 40
1.0
 40
1.0
 10
144.9999855550305
 20
-50.39559537925793
 30
0.0
 10
149.1768287149102
 20
-50.40530942175005
 30
0.0
 10
153.2893916560255
 20
-49.36718096579974
 30
0.0
 10
156.9612122504957
 20
-47.37623981474509
 30
0.0
  0
SPLINE
  5
C3
330
1F
100
AcDbEntity
  8
Calque 1
 62
     7
370
    25
100
AcDbSpline
210
0.0
220
0.0
230
1.0
 70
     8
 71
     3
 72
     8
 73
     4
 74
     0
 42
0.0000000001
 43
0.0000000001
 12
1.0
 22
0.0
 32
0.0
 13
1.0
 23
0.0
 33
0.0
 40
0.0
 40
0.0
 40
0.0
 40
0.0
 40
1.0
 40
1.0
 40
1.0
 40
1.0
 10
156.4662996737739
 20
-43.67628299405312
 30
0.0
 10
152.6844754682022
 20
-42.97451640640818
 30
0.0
 10
148.8463689829424
 20
-42.62027861431283
 30
0.0
 10
144.9999855550305
 20
-42.61800026729828
 30
0.0
  0
SPLINE
  5
C4
330
1F
100
AcDbEntity
  8
Calque 1
 62
     7
370
    25
100
AcDbSpline
210
0.0
220
0.0
230
1.0
 70
     8
 71
     3
 72
    11
 73
     7
 74
     0
 42
0.0000000001
 43
0.0000000001
 12
1.0
 22
0.0
 32
0.0
 13
1.0
 23
0.0
 33
0.0
 40
0.0
 40
0.0
 40
0.0
 40
0.0
 40
1.0
 40
1.0
 40
1.0
 40
2.0
 40
2.0
 40
2.0
 40
2.0
 10
156.9612122504957
 20
-47.37623981474509
 30
0.0
 10
157.9198165655247
 20
-46.7677602442112
 30
0.0
 10
158.2036487510305
 20
-45.49738775236705
 30
0.0
 10
157.5951691805133
 20
-44.5387834373368
 30
0.0
 10
157.3333260875403
 20
-44.12627341901295
 30
0.0
 10
156.9331256035192
 20
-43.82050460090787
 30
0.0
 10
156.4662996737739
 20
-43.67628299405312
 30
0.0
  0
SPLINE
  5
C5
330
1F
100
AcDbEntity
  8
Calque 1
 62
     7
370
    25
100
AcDbSpline
210
0.0
220
0.0
230
1.0
 70
     8
 71
     3
 72
     8
 73
     4
 74
     0
 42
0.0000000001
 43
0.0000000001
 12
1.0
 22
0.0
 32
0.0
 13
1.0
 23
0.0
 33
0.0
 40
0.0
 40
0.0
 40
0.0
 40
0.0
 40
1.0
 40
1.0
 40
1.0
 40
1.0
 10
133.0387588595974
 20
-47.37623981474509
 30
0.0
 10
136.7105794540498
 20
-49.36718096579974
 30
0.0
 10
140.8231423951496
 20
-50.40530942175005
 30
0.0
 10
144.9999855550305
 20
-50.39559537925793
 30
0.0
  0
SPLINE
  5
C6
330
1F
100
AcDbEntity
  8
Calque 1
 62
     7
370
    25
100
AcDbSpline
210
0.0
220
0.0
230
1.0
 70
     8
 71
     3
 72
     8
 73
     4
 74
     0
 42
0.0000000001
 43
0.0000000001
 12
1.0
 22
0.0
 32
0.0
 13
1.0
 23
0.0
 33
0.0
 40
0.0
 40
0.0
 40
0.0
 40
0.0
 40
1.0
 40
1.0
 40
1.0
 40
1.0
 10
144.9999855550305
 20
-42.61800026729828
 30
0.0
 10
141.1536021271174
 20
-42.62027861431283
 30
0.0
 10
137.3154956418717
 20
-42.97451640640818
 30
0.0
 10
133.5336714363013
 20
-43.67628299405312
 30
0.0
  0
SPLINE
  5
C7
330
1F
100
AcDbEntity
  8
Calque 1
 62
     7
370
    25
100
AcDbSpline
210
0.0
220
0.0
230
1.0
 70
     8
 71
     3
 72
     8
 73
     4
 74
     0
 42
0.0000000001
 43
0.0000000001
 12
1.0
 22
0.0
 32
0.0
 13
1.0
 23
0.0
 33
0.0
 40
0.0
 40
0.0
 40
0.0
 40
0.0
 40
1.0
 40
1.0
 40
1.0
 40
1.0
 10
144.9999855550305
 20
-50.39559537925793
 30
0.0
 10
149.1768287149102
 20
-50.40530942175005
 30
0.0
 10
153.2893916560255
 20
-49.36718096579974
 30
0.0
 10
156.9612122504957
 20
-47.37623981474509
 30
0.0
  0
SPLINE
  5
C8
330
1F
100
AcDbEntity
  8
Calque 1
 62
     7
370
    25
100
AcDbSpline
210
0.0
220
0.0
230
1.0
 70
     8
 71
     3
 72
     8
 73
     4
 74
     0
 42
0.0000000001
 43
0.0000000001
 12
1.0
 22
0.0
 32
0.0
 13
1.0
 23
0.0
 33
0.0
 40
0.0
 40
0.0
 40
0.0
 40
0.0
 40
1.0
 40
1.0
 40
1.0
 40
1.0
 10
156.4662996737739
 20
-43.67628299405312
 30
0.0
 10
152.6844754682022
 20
-42.97451640640818
 30
0.0
 10
148.8463689829424
 20
-42.62027861431283
 30
0.0
 10
144.9999855550305
 20
-42.61800026729828
 30
0.0
  0
ENDSEC
  0
SECTION
  2
OBJECTS
  0
DICTIONARY
  5
C
330
0
100
AcDbDictionary
281
     1
  3
ACAD_GROUP
350
D
  3
ACAD_LAYOUT
350
1A
  3
ACAD_MATERIAL
350
3B
  3
ACAD_MLEADERSTYLE
350
CA
  3
ACAD_MLINESTYLE
350
17
  3
ACAD_PLOTSETTINGS
350
19
  3
ACAD_PLOTSTYLENAME
350
E
  3
ACAD_TABLESTYLE
350
C9
  3
ACAD_VISUALSTYLE
350
2A
  0
SUN
  5
3F
330
29
100
AcDbSun
 90
        1
290
     0
 63
     7
421
 16777215
 40
1.0
291
     1
 91
  2455826
 92
 54000000
292
     0
 70
     2
 71
   256
280
     1
  0
DICTIONARY
  5
D
102
{ACAD_REACTORS
330
C
102
}
330
C
100
AcDbDictionary
281
     1
  0
DICTIONARY
  5
1A
102
{ACAD_REACTORS
330
C
102
}
330
C
100
AcDbDictionary
281
     1
  3
Layout1
350
1E
  3
Layout2
350
26
  3
Model
350
22
  0
DICTIONARY
  5
3B
102
{ACAD_REACTORS
330
C
102
}
330
C
100
AcDbDictionary
281
     1
  3
ByBlock
350
3D
  3
ByLayer
350
3C
  3
Global
350
3E
  0
DICTIONARY
  5
CA
102
{ACAD_REACTORS
330
C
102
}
330
C
100
AcDbDictionary
281
     1
  0
DICTIONARY
  5
17
102
{ACAD_REACTORS
330
C
102
}
330
C
100
AcDbDictionary
281
     1
  3
Standard
350
18
  0
DICTIONARY
  5
19
102
{ACAD_REACTORS
330
C
102
}
330
C
100
AcDbDictionary
281
     1
  0
ACDBDICTIONARYWDFLT
  5
E
102
{ACAD_REACTORS
330
C
102
}
330
C
100
AcDbDictionary
281
     1
  3
Normal
350
F
100
AcDbDictionaryWithDefault
340
F
  0
DICTIONARY
  5
C9
102
{ACAD_REACTORS
330
C
102
}
330
C
100
AcDbDictionary
281
     1
  0
DICTIONARY
  5
2A
102
{ACAD_REACTORS
330
C
102
}
330
C
100
AcDbDictionary
281
     1
  3
2dWireframe
350
2F
  3
3D Hidden
350
31
  3
3dWireframe
350
30
  3
Basic
350
32
  3
Brighten
350
36
  3
ColorChange
350
3A
  3
Conceptual
350
34
  3
Dim
350
35
  3
Facepattern
350
39
  3
Flat
350
2B
  3
FlatWithEdges
350
2C
  3
Gouraud
350
2D
  3
GouraudWithEdges
350
2E
  3
Linepattern
350
38
  3
Realistic
350
33
  3
Thicken
350
37
  0
LAYOUT
  5
1E
102
{ACAD_REACTORS
330
1A
102
}
330
1A
100
AcDbPlotSettings
  1

  2
none_device
  4

  6

 40
0.0
 41
0.0
 42
0.0
 43
0.0
 44
0.0
 45
0.0
 46
0.0
 47
0.0
 48
0.0
 49
0.0
140
0.0
141
0.0
142
1.0
143
1.0
 70
   688
 72
     0
 73
     0
 74
     5
  7

 75
    16
 76
     0
 77
     2
 78
   300
147
1.0
148
0.0
149
0.0
100
AcDbLayout
  1
Layout1
 70
     1
 71
     1
 10
0.0
 20
0.0
 11
12.0
 21
9.0
 12
0.0
 22
0.0
 32
0.0
 14
1.000000000000000E+20
 24
1.000000000000000E+20
 34
1.000000000000000E+20
 15
-1.000000000000000E+20
 25
-1.000000000000000E+20
 35
-1.000000000000000E+20
146
0.0
 13
0.0
 23
0.0
 33
0.0
 16
1.0
 26
0.0
 36
0.0
 17
0.0
 27
1.0
 37
0.0
 76
     0
330
1B
  0
LAYOUT
  5
26
102
{ACAD_REACTORS
330
1A
102
}
330
1A
100
AcDbPlotSettings
  1

  2
none_device
  4

  6

 40
0.0
 41
0.0
 42
0.0
 43
0.0
 44
0.0
 45
0.0
 46
0.0
 47
0.0
 48
0.0
 49
0.0
140
0.0
141
0.0
142
1.0
143
1.0
 70
   688
 72
     0
 73
     0
 74
     5
  7

 75
    16
 76
     0
 77
     2
 78
   300
147
1.0
148
0.0
149
0.0
100
AcDbLayout
  1
Layout2
 70
     1
 71
     2
 10
0.0
 20
0.0
 11
0.0
 21
0.0
 12
0.0
 22
0.0
 32
0.0
 14
0.0
 24
0.0
 34
0.0
 15
0.0
 25
0.0
 35
0.0
146
0.0
 13
0.0
 23
0.0
 33
0.0
 16
1.0
 26
0.0
 36
0.0
 17
0.0
 27
1.0
 37
0.0
 76
     0
330
23
  0
LAYOUT
  5
22
102
{ACAD_REACTORS
330
1A
102
}
330
1A
100
AcDbPlotSettings
  1

  2
none_device
  4

  6

 40
0.0
 41
0.0
 42
0.0
 43
0.0
 44
0.0
 45
0.0
 46
0.0
 47
0.0
 48
0.0
 49
0.0
140
0.0
141
0.0
142
1.0
143
1.0
 70
  1712
 72
     0
 73
     0
 74
     0
  7

 75
     0
 76
     0
 77
     2
 78
   300
147
1.0
148
0.0
149
0.0
100
AcDbLayout
  1
Model
 70
     1
 71
     0
 10
0.0
 20
0.0
 11
12.0
 21
9.0
 12
0.0
 22
0.0
 32
0.0
 14
1.000000000000000E+20
 24
1.000000000000000E+20
 34
1.000000000000000E+20
 15
-1.000000000000000E+20
 25
-1.000000000000000E+20
 35
-1.000000000000000E+20
146
0.0
 13
0.0
 23
0.0
 33
0.0
 16
1.0
 26
0.0
 36
0.0
 17
0.0
 27
1.0
 37
0.0
 76
     0
330
1F
331
29
  0
MATERIAL
  5
3D
102
{ACAD_REACTORS
330
3B
102
}
330
3B
100
AcDbMaterial
  1
ByBlock
 72
     1
 94
      127
  0
MATERIAL
  5
3C
102
{ACAD_REACTORS
330
3B
102
}
330
3B
100
AcDbMaterial
  1
ByLayer
 72
     1
 94
      127
  0
MATERIAL
  5
3E
102
{ACAD_REACTORS
330
3B
102
}
330
3B
100
AcDbMaterial
  1
Global
 72
     1
 94
      127
  0
MLINESTYLE
  5
18
102
{ACAD_REACTORS
330
17
102
}
330
17
100
AcDbMlineStyle
  2
Standard
 70
     0
  3

 62
   256
 51
90.0
 52
90.0
 71
     2
 49
0.5
 62
   256
  6
BYLAYER
 49
-0.5
 62
   256
  6
BYLAYER
  0
ACDBPLACEHOLDER
  5
F
102
{ACAD_REACTORS
330
E
102
}
330
E
  0
VISUALSTYLE
  5
2F
102
{ACAD_REACTORS
330
2A
102
}
330
2A
100
AcDbVisualStyle
  2
2dWireframe
 70
     4
177
     2
291
     0
 71
     0
176
     1
 72
     2
176
     1
 73
     0
176
     1
 90
        0
176
     1
 40
-0.6
176
     1
 41
-30.0
176
     1
 62
     5
 63
     7
421
 16777215
176
     1
 74
     1
176
     1
 91
        4
176
     1
 64
     7
176
     1
 65
   257
176
     1
 75
     1
176
     1
175
     1
176
     1
 42
1.0
176
     1
 92
        0
176
     1
 66
   257
176
     1
 43
1.0
176
     1
 76
     1
176
     1
 77
     6
176
     1
 78
     2
176
     1
 67
     7
176
     1
 79
     5
176
     1
170
     0
176
     1
171
     0
176
     1
290
     0
176
     1
 93
        1
176
     1
 44
0.0
176
     1
173
     0
176
     1
  0
VISUALSTYLE
  5
31
102
{ACAD_REACTORS
330
2A
102
}
330
2A
100
AcDbVisualStyle
  2
3D Hidden
 70
     6
177
     2
291
     0
 71
     1
176
     1
 72
     2
176
     1
 73
     2
176
     1
 90
        0
176
     1
 40
-0.6
176
     1
 41
-30.0
176
     1
 62
     5
 63
     7
421
 16777215
176
     1
 74
     2
176
     1
 91
        2
176
     1
 64
     7
176
     1
 65
   257
176
     1
 75
     2
176
     1
175
     1
176
     1
 42
40.0
176
     1
 92
        0
176
     1
 66
   257
176
     1
 43
1.0
176
     1
 76
     1
176
     1
 77
     6
176
     1
 78
     2
176
     1
 67
     7
176
     1
 79
     3
176
     1
170
     0
176
     1
171
     0
176
     1
290
     0
176
     1
 93
        1
176
     1
 44
0.0
176
     1
173
     0
176
     1
  0
VISUALSTYLE
  5
30
102
{ACAD_REACTORS
330
2A
102
}
330
2A
100
AcDbVisualStyle
  2
3dWireframe
 70
     5
177
     2
291
     0
 71
     0
176
     1
 72
     2
176
     1
 73
     0
176
     1
 90
        0
176
     1
 40
-0.6
176
     1
 41
-30.0
176
     1
 62
     5
 63
     7
421
 16777215
176
     1
 74
     1
176
     1
 91
        4
176
     1
 64
     7
176
     1
 65
   257
176
     1
 75
     1
176
     1
175
     1
176
     1
 42
1.0
176
     1
 92
        0
176
     1
 66
   257
176
     1
 43
1.0
176
     1
 76
     1
176
     1
 77
     6
176
     1
 78
     2
176
     1
 67
     7
176
     1
 79
     5
176
     1
170
     0
176
     1
171
     0
176
     1
290
     0
176
     1
 93
        1
176
     1
 44
0.0
176
     1
173
     0
176
     1
  0
VISUALSTYLE
  5
32
102
{ACAD_REACTORS
330
2A
102
}
330
2A
100
AcDbVisualStyle
  2
Basic
 70
     7
177
     2
291
     1
 71
     1
176
     1
 72
     0
176
     1
 73
     1
176
     1
 90
        0
176
     1
 40
-0.6
176
     1
 41
-30.0
176
     1
 62
     5
 63
     7
421
 16777215
176
     1
 74
     0
176
     1
 91
        4
176
     1
 64
     7
176
     1
 65
   257
176
     1
 75
     1
176
     1
175
     1
176
     1
 42
1.0
176
     1
 92
        8
176
     1
 66
     7
176
     1
 43
1.0
176
     1
 76
     1
176
     1
 77
     6
176
     1
 78
     2
176
     1
 67
     7
176
     1
 79
     5
176
     1
170
     0
176
     1
171
     0
176
     1
290
     0
176
     1
 93
        1
176
     1
 44
0.0
176
     1
173
     0
176
     1
  0
VISUALSTYLE
  5
36
102
{ACAD_REACTORS
330
2A
102
}
330
2A
100
AcDbVisualStyle
  2
Brighten
 70
    12
177
     2
291
     1
 71
     2
176
     1
 72
     2
176
     1
 73
     0
176
     1
 90
        0
176
     1
 40
-0.6
176
     1
 41
-30.0
176
     1
 62
     5
 63
     7
421
 16777215
176
     1
 74
     1
176
     1
 91
        4
176
     1
 64
     7
176
     1
 65
   257
176
     1
 75
     1
176
     1
175
     1
176
     1
 42
1.0
176
     1
 92
        8
176
     1
 66
     7
176
     1
 43
1.0
176
     1
 76
     1
176
     1
 77
     6
176
     1
 78
     2
176
     1
 67
     7
176
     1
 79
     5
176
     1
170
     0
176
     1
171
     0
176
     1
290
     0
176
     1
 93
        1
176
     1
 44
50.0
176
     1
173
     0
176
     1
  0
VISUALSTYLE
  5
3A
102
{ACAD_REACTORS
330
2A
102
}
330
2A
100
AcDbVisualStyle
  2
ColorChange
 70
    16
177
     2
291
     1
 71
     2
176
     1
 72
     2
176
     1
 73
     3
176
     1
 90
        0
176
     1
 40
-0.6
176
     1
 41
-30.0
176
     1
 62
     5
 63
     8
421
  8421504
176
     1
 74
     1
176
     1
 91
        4
176
     1
 64
     7
176
     1
 65
   257
176
     1
 75
     1
176
     1
175
     1
176
     1
 42
1.0
176
     1
 92
        8
176
     1
 66
     8
424
  8421504
176
     1
 43
1.0
176
     1
 76
     1
176
     1
 77
     6
176
     1
 78
     2
176
     1
 67
     7
176
     1
 79
     5
176
     1
170
     0
176
     1
171
     0
176
     1
290
     0
176
     1
 93
        1
176
     1
 44
0.0
176
     1
173
     0
176
     1
  0
VISUALSTYLE
  5
34
102
{ACAD_REACTORS
330
2A
102
}
330
2A
100
AcDbVisualStyle
  2
Conceptual
 70
     9
177
     2
291
     0
 71
     3
176
     1
 72
     2
176
     1
 73
     0
176
     1
 90
        0
176
     1
 40
-0.6
176
     1
 41
-30.0
176
     1
 62
     5
 63
     7
421
 16777215
176
     1
 74
     2
176
     1
 91
        2
176
     1
 64
     7
176
     1
 65
   257
176
     1
 75
     1
176
     1
175
     1
176
     1
 42
40.0
176
     1
 92
        8
176
     1
 66
     7
176
     1
 43
1.0
176
     1
 76
     1
176
     1
 77
     6
176
     1
 78
     2
176
     1
 67
     7
176
     1
 79
     3
176
     1
170
     0
176
     1
171
     0
176
     1
290
     0
176
     1
 93
        1
176
     1
 44
0.0
176
     1
173
     0
176
     1
  0
VISUALSTYLE
  5
35
102
{ACAD_REACTORS
330
2A
102
}
330
2A
100
AcDbVisualStyle
  2
Dim
 70
    11
177
     2
291
     1
 71
     2
176
     1
 72
     2
176
     1
 73
     0
176
     1
 90
        0
176
     1
 40
-0.6
176
     1
 41
-30.0
176
     1
 62
     5
 63
     7
421
 16777215
176
     1
 74
     1
176
     1
 91
        4
176
     1
 64
     7
176
     1
 65
   257
176
     1
 75
     1
176
     1
175
     1
176
     1
 42
1.0
176
     1
 92
        8
176
     1
 66
     7
176
     1
 43
1.0
176
     1
 76
     1
176
     1
 77
     6
176
     1
 78
     2
176
     1
 67
     7
176
     1
 79
     5
176
     1
170
     0
176
     1
171
     0
176
     1
290
     0
176
     1
 93
        1
176
     1
 44
-50.0
176
     1
173
     0
176
     1
  0
VISUALSTYLE
  5
39
102
{ACAD_REACTORS
330
2A
102
}
330
2A
100
AcDbVisualStyle
  2
Facepattern
 70
    15
177
     2
291
     1
 71
     2
176
     1
 72
     2
176
     1
 73
     0
176
     1
 90
        0
176
     1
 40
-0.6
176
     1
 41
-30.0
176
     1
 62
     5
 63
     7
421
 16777215
176
     1
 74
     1
176
     1
 91
        4
176
     1
 64
     7
176
     1
 65
   257
176
     1
 75
     1
176
     1
175
     1
176
     1
 42
1.0
176
     1
 92
        8
176
     1
 66
     7
176
     1
 43
1.0
176
     1
 76
     1
176
     1
 77
     6
176
     1
 78
     2
176
     1
 67
     7
176
     1
 79
     5
176
     1
170
     0
176
     1
171
     0
176
     1
290
     0
176
     1
 93
        1
176
     1
 44
0.0
176
     1
173
     0
176
     1
  0
VISUALSTYLE
  5
2B
102
{ACAD_REACTORS
330
2A
102
}
330
2A
100
AcDbVisualStyle
  2
Flat
 70
     0
177
     2
291
     1
 71
     2
176
     1
 72
     1
176
     1
 73
     1
176
     1
 90
        2
176
     1
 40
-0.6
176
     1
 41
30.0
176
     1
 62
     5
 63
     7
421
 16777215
176
     1
 74
     0
176
     1
 91
        4
176
     1
 64
     7
176
     1
 65
   257
176
     1
 75
     1
176
     1
175
     1
176
     1
 42
1.0
176
     1
 92
        8
176
     1
 66
     7
176
     1
 43
1.0
176
     1
 76
     1
176
     1
 77
     6
176
     1
 78
     2
176
     1
 67
     7
176
     1
 79
     5
176
     1
170
     0
176
     1
171
     0
176
     1
290
     0
176
     1
 93
       13
176
     1
 44
0.0
176
     1
173
     0
176
     1
  0
VISUALSTYLE
  5
2C
102
{ACAD_REACTORS
330
2A
102
}
330
2A
100
AcDbVisualStyle
  2
FlatWithEdges
 70
     1
177
     2
291
     1
 71
     2
176
     1
 72
     1
176
     1
 73
     1
176
     1
 90
        2
176
     1
 40
-0.6
176
     1
 41
30.0
176
     1
 62
     5
 63
     7
421
 16777215
176
     1
 74
     1
176
     1
 91
        4
176
     1
 64
     7
176
     1
 65
   257
176
     1
 75
     1
176
     1
175
     1
176
     1
 42
1.0
176
     1
 92
        0
176
     1
 66
   257
176
     1
 43
1.0
176
     1
 76
     1
176
     1
 77
     6
176
     1
 78
     2
176
     1
 67
     7
176
     1
 79
     5
176
     1
170
     0
176
     1
171
     0
176
     1
290
     0
176
     1
 93
       13
176
     1
 44
0.0
176
     1
173
     0
176
     1
  0
VISUALSTYLE
  5
2D
102
{ACAD_REACTORS
330
2A
102
}
330
2A
100
AcDbVisualStyle
  2
Gouraud
 70
     2
177
     2
291
     1
 71
     2
176
     1
 72
     2
176
     1
 73
     1
176
     1
 90
        2
176
     1
 40
-0.6
176
     1
 41
30.0
176
     1
 62
     5
 63
     7
421
 16777215
176
     1
 74
     0
176
     1
 91
        4
176
     1
 64
     7
176
     1
 65
   257
176
     1
 75
     1
176
     1
175
     1
176
     1
 42
1.0
176
     1
 92
        0
176
     1
 66
     7
176
     1
 43
1.0
176
     1
 76
     1
176
     1
 77
     6
176
     1
 78
     2
176
     1
 67
     7
176
     1
 79
     5
176
     1
170
     0
176
     1
171
     0
176
     1
290
     0
176
     1
 93
       13
176
     1
 44
0.0
176
     1
173
     0
176
     1
  0
VISUALSTYLE
  5
2E
102
{ACAD_REACTORS
330
2A
102
}
330
2A
100
AcDbVisualStyle
  2
GouraudWithEdges
 70
     3
177
     2
291
     1
 71
     2
176
     1
 72
     2
176
     1
 73
     1
176
     1
 90
        2
176
     1
 40
-0.6
176
     1
 41
30.0
176
     1
 62
     5
 63
     7
421
 16777215
176
     1
 74
     1
176
     1
 91
        4
176
     1
 64
     7
176
     1
 65
   257
176
     1
 75
     1
176
     1
175
     1
176
     1
 42
1.0
176
     1
 92
        0
176
     1
 66
   257
176
     1
 43
1.0
176
     1
 76
     1
176
     1
 77
     6
176
     1
 78
     2
176
     1
 67
     7
176
     1
 79
     5
176
     1
170
     0
176
     1
171
     0
176
     1
290
     0
176
     1
 93
       13
176
     1
 44
0.0
176
     1
173
     0
176
     1
  0
VISUALSTYLE
  5
38
102
{ACAD_REACTORS
330
2A
102
}
330
2A
100
AcDbVisualStyle
  2
Linepattern
 70
    14
177
     2
291
     1
 71
     2
176
     1
 72
     2
176
     1
 73
     0
176
     1
 90
        0
176
     1
 40
-0.6
176
     1
 41
-30.0
176
     1
 62
     5
 63
     7
421
 16777215
176
     1
 74
     1
176
     1
 91
        4
176
     1
 64
     7
176
     1
 65
   257
176
     1
 75
     7
176
     1
175
     7
176
     1
 42
1.0
176
     1
 92
        8
176
     1
 66
     7
176
     1
 43
1.0
176
     1
 76
     1
176
     1
 77
     6
176
     1
 78
     2
176
     1
 67
     7
176
     1
 79
     5
176
     1
170
     0
176
     1
171
     0
176
     1
290
     0
176
     1
 93
        1
176
     1
 44
0.0
176
     1
173
     0
176
     1
  0
VISUALSTYLE
  5
33
102
{ACAD_REACTORS
330
2A
102
}
330
2A
100
AcDbVisualStyle
  2
Realistic
 70
     8
177
     2
291
     0
 71
     2
176
     1
 72
     2
176
     1
 73
     0
176
     1
 90
        0
176
     1
 40
-0.6
176
     1
 41
-30.0
176
     1
 62
     5
 63
     7
421
 16777215
176
     1
 74
     1
176
     1
 91
        0
176
     1
 64
     7
176
     1
 65
   257
176
     1
 75
     1
176
     1
175
     1
176
     1
 42
1.0
176
     1
 92
        8
176
     1
 66
     8
424
  7895160
176
     1
 43
1.0
176
     1
 76
     1
176
     1
 77
     6
176
     1
 78
     2
176
     1
 67
     7
176
     1
 79
     5
176
     1
170
     0
176
     1
171
     0
176
     1
290
     0
176
     1
 93
       13
176
     1
 44
0.0
176
     1
173
     0
176
     1
  0
VISUALSTYLE
  5
37
102
{ACAD_REACTORS
330
2A
102
}
330
2A
100
AcDbVisualStyle
  2
Thicken
 70
    13
177
     2
291
     1
 71
     2
176
     1
 72
     2
176
     1
 73
     0
176
     1
 90
        0
176
     1
 40
-0.6
176
     1
 41
-30.0
176
     1
 62
     5
 63
     7
421
 16777215
176
     1
 74
     1
176
     1
 91
        4
176
     1
 64
     7
176
     1
 65
   257
176
     1
 75
     1
176
     1
175
     1
176
     1
 42
1.0
176
     1
 92
       12
176
     1
 66
     7
176
     1
 43
1.0
176
     1
 76
     1
176
     1
 77
     6
176
     1
 78
     2
176
     1
 67
     7
176
     1
 79
     5
176
     1
170
     0
176
     1
171
     0
176
     1
290
     0
176
     1
 93
        1
176
     1
 44
0.0
176
     1
173
     0
176
     1
  0
ENDSEC
  0
EOF
