0
SECTION
2
HEADER
9
$INSUNITS
70
4
9
$ACADVER
1
AC1014
9
$HANDSEED
5
FFFF
0
ENDSEC
0
SECTION
2
TABLES
0
TABLE
2
VPORT
5
8
100
AcDbSymbolTable
0
ENDTAB
0
TABLE
2
LTYPE
5
5
100
AcDbSymbolTable
0
LTYPE
5
14
100
AcDbSymbolTableRecord
100
AcDbLinetypeTableRecord
2
BYBLOCK
70
0
0
LTYPE
5
15
100
AcDbSymbolTableRecord
100
AcDbLinetypeTableRecord
2
BYLAYER
70
0
0
ENDTAB
0
TABLE
2
LAYER
5
2
100
AcDbSymbolTable
70
2
0
LAYER
5
50
100
AcDbSymbolTableRecord
100
AcDbLayerTableRecord
2
0
70
0
6
CONTINUOUS
0
ENDTAB
0
TABLE
2
STYLE
5
3
100
AcDbSymbolTable
70
1
0
STYLE
5
11
100
AcDbSymbolTableRecord
100
AcDbTextStyleTableRecord
2
STANDARD
70
0
0
ENDTAB
0
TABLE
2
VIEW
5
6
100
AcDbSymbolTable
70
0
0
ENDTAB
0
TABLE
2
UCS
5
7
100
AcDbSymbolTable
70
0
0
ENDTAB
0
TABLE
2
APPID
5
9
100
AcDbSymbolTable
70
2
0
APPID
5
12
100
AcDbSymbolTableRecord
100
AcDbRegAppTableRecord
2
ACAD
70
0
0
ENDTAB
0
TABLE
2
DIMSTYLE
5
A
100
AcDbSymbolTable
70
1
0
ENDTAB
0
TABLE
2
BLOCK_RECORD
5
1
100
AcDbSymbolTable
70
1
0
BLOCK_RECORD
5
1F
100
AcDbSymbolTableRecord
100
AcDbBlockTableRecord
2
*MODEL_SPACE
0
BLOCK_RECORD
5
1B
100
AcDbSymbolTableRecord
100
AcDbBlockTableRecord
2
*PAPER_SPACE
0
ENDTAB
0
ENDSEC
0
SECTION
2
BLOCKS
0
BLOCK
5
20
100
AcDbEntity
100
AcDbBlockBegin
2
*MODEL_SPACE
0
ENDBLK
5
21
100
AcDbEntity
100
AcDbBlockEnd
0
BLOCK
5
1C
100
AcDbEntity
100
AcDbBlockBegin
2
*PAPER_SPACE
0
ENDBLK
5
1D
100
AcDbEntity
100
AcDbBlockEnd
0
ENDSEC
0
SECTION
2
ENTITIES
0
LWPOLYLINE
5
100
100
AcDbEntity
8
0
100
AcDbPolyline
90
33
70
1
43
0.0
10
-163.11273827338039
20
367.56032736145596
42
-0.99999999999999989
10
-158.87009758626112
20
371.80296804857551
10
-150.20399011101131
20
371.80296804857551
10
-150.20399011101125
20
462.5964805113864
42
-0.41421356237310114
10
-150.20399011101136
20
466.83912119850561
10
-150.20399011101131
20
668.80296804857551
42
0.41421356237309503
10
-153.20399011101139
20
671.80296804857551
10
-204.88724169679557
20
671.80296804857551
42
0.41421356237308815
10
-219.88724169679563
20
656.80296804857562
10
-219.88724169679557
20
620.26569550393094
42
0.25073005014185146
10
-211.87380890199267
20
605.29009950724083
42
-0.093666910312372884
10
-207.09728227084815
20
600.61261306421989
10
-201.49278844198389
20
592.57816092817291
42
-0.31432042422826861
10
-200.46346928098507
20
589.30341617200281
10
-200.46346928098515
20
573.31989654365998
42
-0.1776738647624401
10
-204.73529833899067
20
561.67784678481678
10
-215.61541263879002
20
548.84814135750332
42
0.17767386476244101
10
-219.88724169679554
20
537.20609159866024
10
-219.88724169679554
20
517.39311174537829
42
0.15345913529180005
10
-216.65033553313719
20
507.09500219170911
10
-196.34283676736229
20
477.9827162621317
42
-0.21088851554534671
10
-193.54880676522362
20
463.71630700704554
10
-200.28345885554381
20
433.91988797231193
42
-0.088069390590148844
10
-202.72199962365193
20
428.11943924088166
10
-217.27164960509697
20
405.60170389316113
42
0.27506131669418304
10
-219.88724169679551
20
401.2068661342866
10
-219.88724169679551
20
371.80296804857539
10
-202.90996261182522
20
371.80296804857556
42
-0.99999999999999989
10
-198.66732192470593
20
367.56032736145607
10
-198.66732192470593
20
357.35296804857541
42
0.41421356237309853
10
-195.66732192470596
20
354.35296804857546
10
-166.11273827338039
20
354.35296804857552
42
0.41421356237311935
10
-163.11273827338039
20
357.35296804857558
0
LWPOLYLINE
5
101
100
AcDbEntity
8
0
100
AcDbPolyline
90
4
70
1
43
0.0
10
-150.20399011101131
20
371.80296804857551
10
-150.20399011101136
20
462.5964805113864
10
-132.75399011101132
20
462.5964805113864
10
-132.75399011101126
20
371.80296804857551
0
ARC
5
102
100
AcDbEntity
8
0
100
AcDbCircle
10
-120.78864226826556
20
369.68164770501573
30
0
40
2.9999999999999813
210
-0
220
0
230
1
100
AcDbArc
50
-44.999999999999439
51
135.00000000000077
0
LINE
5
103
100
AcDbEntity
8
0
100
AcDbLine
10
-118.66732192470592
20
367.56032736145613
30
0
11
-118.66732192470592
21
357.35296804857546
31
0
0
ARC
5
104
100
AcDbEntity
8
0
100
AcDbCircle
10
-115.66732192470607
20
357.35296804857541
30
0
40
2.9999999999998472
210
0
220
0
230
1
100
AcDbArc
50
180
51
270.00000000000244
0
LINE
5
105
100
AcDbEntity
8
0
100
AcDbLine
10
-115.66732192470594
20
354.35296804857552
30
0
11
-89.272990513167926
21
354.35296804857552
31
0
0
ARC
5
106
100
AcDbEntity
8
0
100
AcDbCircle
10
-89.272990513167798
20
357.35296804857541
30
0
40
2.9999999999999005
210
0
220
0
230
1
100
AcDbArc
50
-90.000000000002444
51
0
0
LINE
5
107
100
AcDbEntity
8
0
100
AcDbLine
10
-86.272990513167898
20
357.35296804857546
30
0
11
-86.272990513167898
21
367.56032736145613
31
0
0
ARC
5
108
100
AcDbEntity
8
0
100
AcDbCircle
10
-84.151670169608238
20
369.68164770501573
30
0
40
3.0000000000000444
210
0
220
-0
230
1
100
AcDbArc
50
45.000000000002302
51
224.99999999999923
0
LINE
5
109
100
AcDbEntity
8
0
100
AcDbLine
10
-82.030349826048635
20
371.80296804857551
30
0
11
-73.667321924705959
21
371.80296804857551
31
0
0
LINE
5
110
100
AcDbEntity
8
0
100
AcDbLine
10
-73.667321924705959
20
371.80296804857551
30
0
11
-73.667321924705959
21
386.52460312097725
31
0
0
ARC
5
111
100
AcDbEntity
8
0
100
AcDbCircle
10
-91.66732192470603
20
386.52460312097719
30
0
40
18.000000000000071
210
0
220
-0
230
1
100
AcDbArc
50
0
51
51.53020269404665
0
ARC
5
112
100
AcDbEntity
8
0
100
AcDbCircle
10
-69.271649605096968
20
414.7103062584315
30
0
40
18
210
0
220
0
230
1
100
AcDbArc
50
180
51
231.53020269404684
0
LINE
5
113
100
AcDbEntity
8
0
100
AcDbLine
10
-87.271649605096968
20
414.7103062584315
30
0
11
-87.271649605096968
21
440.15904745450149
31
0
0
ARC
5
114
100
AcDbEntity
8
0
100
AcDbCircle
10
-69.271649605096968
20
440.15904745450149
30
0
40
17.999999999999993
210
0
220
0
230
1
100
AcDbArc
50
146.35253732146643
51
180
0
LINE
5
115
100
AcDbEntity
8
0
100
AcDbLine
10
-84.255975261797076
20
450.13251147729511
30
0
11
-76.68299626800588
21
461.51030189945681
31
0
0
ARC
5
116
100
AcDbEntity
8
0
100
AcDbCircle
10
-91.667321924706116
20
471.48376592225048
30
0
40
18.000000000000146
210
0
220
0
230
1
100
AcDbArc
50
-33.647462678533515
51
0
0
LINE
5
117
100
AcDbEntity
8
0
100
AcDbLine
10
-73.667321924705988
20
471.48376592225048
30
0
11
-73.667321924705988
21
497.23188968430173
31
0
0
ARC
5
118
100
AcDbEntity
8
0
100
AcDbCircle
10
-91.667321924705959
20
497.23188968430173
30
0
40
17.999999999999972
210
0
220
0
230
1
100
AcDbArc
50
0
51
39.395149110306015
0
LINE
5
119
100
AcDbEntity
8
0
100
AcDbLine
10
-77.757150352806747
20
508.65586127216579
30
0
11
-83.181821176996237
21
515.26110370516619
31
0
0
ARC
5
120
100
AcDbEntity
8
0
100
AcDbCircle
10
-69.271649605096982
20
526.68507529303031
30
0
40
18.000000000000007
210
0
220
0
230
1
100
AcDbArc
50
180
51
219.39514911030608
0
LINE
5
121
100
AcDbEntity
8
0
100
AcDbLine
10
-87.271649605096982
20
526.68507529303031
30
0
11
-87.271649605096968
21
551.35248029816489
31
0
0
ARC
5
122
100
AcDbEntity
8
0
100
AcDbCircle
10
-105.27164960509734
20
551.35248029816478
30
0
40
18.000000000000362
210
0
220
-0
230
1
100
AcDbArc
50
0
51
26.565051177077798
0
LINE
5
123
100
AcDbEntity
8
0
100
AcDbLine
10
-89.171960167098533
20
559.40232501716412
30
0
11
-95.371339043095446
21
571.80108276915814
31
0
0
ARC
5
124
100
AcDbEntity
8
0
100
AcDbCircle
10
-79.271649605096968
20
579.85092748815737
30
0
40
18.000000000000007
210
0
220
0
230
1
100
AcDbArc
50
180
51
206.56505117707795
0
LINE
5
125
100
AcDbEntity
8
0
100
AcDbLine
10
-97.271649605096968
20
579.85092748815737
30
0
11
-97.271649605096968
21
586.3654289692837
31
0
0
ARC
5
126
100
AcDbEntity
8
0
100
AcDbCircle
10
-79.271649605096968
20
586.3654289692837
30
0
40
18
210
0
220
0
230
1
100
AcDbArc
50
158.87320752385236
51
180
0
LINE
5
127
100
AcDbEntity
8
0
100
AcDbLine
10
-96.061781265224582
20
592.85322357419989
30
0
11
-87.938744933868833
21
613.87529005270937
31
0
0
ARC
5
128
100
AcDbEntity
8
0
100
AcDbCircle
10
-71.148613273741205
20
607.38749544779307
30
0
40
17.999999999999996
210
0
220
0
230
1
100
AcDbArc
50
147.13180809557443
51
158.87320752385205
0
LINE
5
129
100
AcDbEntity
8
0
100
AcDbLine
10
-86.26719634411333
20
617.15624388064043
30
0
11
-76.548738854333862
21
632.1969942782107
31
0
0
ARC
5
130
100
AcDbEntity
8
0
100
AcDbCircle
10
-91.667321924706073
20
641.96574271105783
30
0
40
18.000000000000004
210
0
220
0
230
1
100
AcDbArc
50
-32.868191904424805
51
0
0
LINE
5
131
100
AcDbEntity
8
0
100
AcDbLine
10
-73.667321924706016
20
641.96574271105783
30
0
11
-73.667321924706016
21
656.80296804857551
31
0
0
ARC
5
132
100
AcDbEntity
8
0
100
AcDbCircle
10
-88.667321924706073
20
656.80296804857539
30
0
40
15.000000000000053
210
0
220
-0
230
1
100
AcDbArc
50
0
51
89.999999999999673
0
LINE
5
133
100
AcDbEntity
8
0
100
AcDbLine
10
-88.667321924705988
20
671.80296804857551
30
0
11
-129.75399011101135
21
671.80296804857551
31
0
0
ARC
5
134
100
AcDbEntity
8
0
100
AcDbCircle
10
-129.75399011101135
20
668.80296804857551
30
0
40
2.9999999999999716
210
0
220
-0
230
1
100
AcDbArc
50
90
51
180
0
LINE
5
135
100
AcDbEntity
8
0
100
AcDbLine
10
-132.75399011101132
20
668.80296804857551
30
0
11
-132.75399011101138
21
466.83912119850572
31
0
0
ARC
5
136
100
AcDbEntity
8
0
100
AcDbCircle
10
-134.87531045457101
20
464.71780085494606
30
0
40
3.0000000000000444
210
-0
220
0
230
1
100
AcDbArc
50
-45
51
45.000000000000384
0
LINE
5
137
100
AcDbEntity
8
0
100
AcDbLine
10
-132.75399011101135
20
462.5964805113864
30
0
11
-132.75399011101126
21
371.80296804857551
31
0
0
LINE
5
138
100
AcDbEntity
8
0
100
AcDbLine
10
-132.75399011101126
20
371.80296804857551
30
0
11
-122.90996261182522
21
371.80296804857534
31
0
0
LWPOLYLINE
5
139
100
AcDbEntity
8
0
100
AcDbPolyline
90
54
70
1
43
0.0
10
-403.36945810635228
20
458.63083268820924
42
-0.99999999999999989
10
-399.12681741923308
20
454.38819200108986
10
-399.12681741923308
20
370.83732022539823
42
0.41421356237310897
10
-396.12681741923313
20
367.83732022539823
10
-370.09965583294786
20
367.83732022539829
42
-0.99999999999999989
10
-365.85701514582865
20
363.59467953827897
10
-365.85701514582865
20
353.38732022539818
42
0.41421356237312978
10
-362.8570151458286
20
350.38732022539824
10
-317.31646206242613
20
350.38732022539818
42
0.41421356237310197
10
-314.31646206242607
20
353.38732022539818
10
-314.31646206242607
20
363.59467953827874
42
-0.99999999999999989
10
-310.07382137530686
20
367.83732022539823
10
-275.59379190029432
20
367.83732022539823
10
-275.59379190029432
20
647.83732022539823
42
0.41421356237309453
10
-295.59379190029432
20
667.83732022539823
10
-339.15641865875136
20
667.83732022539823
42
0.41421356237309503
10
-346.65641865875136
20
660.33732022539823
10
-346.65641865875131
20
606.37359952744021
42
-0.14135906739419946
10
-348.5003011124312
20
599.98194274806542
10
-364.83773544569459
20
574.02233489970138
42
0.14135906739419735
10
-366.68161789937449
20
567.63067812032648
10
-366.6816178993746
20
543.81160582871325
42
-0.10866992003830347
10
-367.78898781764815
20
538.77666691124193
10
-378.40847211470185
20
515.80238340899052
42
-0.29238274790101404
10
-389.30110219642825
20
508.83732232646196
10
-427.22389323152009
20
508.83732232646196
42
-0.20942482808511848
10
-436.04469326814774
20
512.701384352643
10
-441.74099877658784
20
518.87719001871108
42
-0.12911529692505466
10
-444.60032182422736
20
524.26090621070193
10
-448.35215100711247
20
540.18325190848691
42
0.12911529692506851
10
-451.21147405475199
20
545.56696810047765
10
-468.49138742975947
20
564.3014595655892
42
-0.12911529692505466
10
-471.35071047739899
20
569.68517575757994
10
-475.30807679196357
20
586.4797981782126
42
-0.057917553908755005
10
-475.62795370769641
20
589.23201996004093
10
-475.62795370769635
20
635.88998830337778
42
-0.080611571670535023
10
-475.01215328430254
20
639.68472149557988
10
-468.91852312273852
20
657.96561198027189
42
0.51191829385247756
10
-476.03364785811732
20
667.83732022539812
10
-522.80243009669937
20
667.83732022539823
42
0.41421356237309398
10
-542.80243009669925
20
647.83732022539823
10
-542.80243009669937
20
367.83732022539823
10
-516.79199922417047
20
367.83732022539829
42
-0.99999999999999989
10
-512.54935853705115
20
363.59467953827897
10
-512.54935853705115
20
353.38732022539818
42
0.41421356237312978
10
-509.54935853705115
20
350.38732022539824
10
-468.53984308735437
20
350.38732022539818
42
0.41421356237310897
10
-465.53984308735437
20
353.38732022539818
10
-465.53984308735426
20
363.59467953827902
42
-0.99999999999999989
10
-461.29720240023505
20
367.83732022539823
10
-418.6984291165914
20
367.83732022539823
42
0.41421356237312978
10
-415.69842911659134
20
370.83732022539823
10
-415.69842911659134
20
454.38819200108992
42
-0.99999999999999989
10
-411.45578842947214
20
458.63083268820913
0
ENDSEC
0
SECTION
2
OBJECTS
0
DICTIONARY
5
C
100
AcDbDictionary
3
ACAD_GROUP
350
D
3
ACAD_MLINESTYLE
350
17
0
DICTIONARY
5
D
100
AcDbDictionary
0
DICTIONARY
5
1A
330
C
100
AcDbDictionary
0
DICTIONARY
5
17
100
AcDbDictionary
0
ENDSEC
0
EOF
