0
SECTION
2
HEADER
9
$INSUNITS
70
4
9
$ACADVER
1
AC1014
9
$HANDSEED
5
FFFF
0
ENDSEC
0
SECTION
2
TABLES
0
TABLE
2
VPORT
5
8
100
AcDbSymbolTable
0
ENDTAB
0
TABLE
2
LTYPE
5
5
100
AcDbSymbolTable
0
LTYPE
5
14
100
AcDbSymbolTableRecord
100
AcDbLinetypeTableRecord
2
BYBLOCK
70
0
0
LTYPE
5
15
100
AcDbSymbolTableRecord
100
AcDbLinetypeTableRecord
2
BYLAYER
70
0
0
ENDTAB
0
TABLE
2
LAYER
5
2
100
AcDbSymbolTable
70
2
0
LAYER
5
50
100
AcDbSymbolTableRecord
100
AcDbLayerTableRecord
2
0
70
0
6
CONTINUOUS
0
ENDTAB
0
TABLE
2
STYLE
5
3
100
AcDbSymbolTable
70
1
0
STYLE
5
11
100
AcDbSymbolTableRecord
100
AcDbTextStyleTableRecord
2
STANDARD
70
0
0
ENDTAB
0
TABLE
2
VIEW
5
6
100
AcDbSymbolTable
70
0
0
ENDTAB
0
TABLE
2
UCS
5
7
100
AcDbSymbolTable
70
0
0
ENDTAB
0
TABLE
2
APPID
5
9
100
AcDbSymbolTable
70
2
0
APPID
5
12
100
AcDbSymbolTableRecord
100
AcDbRegAppTableRecord
2
ACAD
70
0
0
ENDTAB
0
TABLE
2
DIMSTYLE
5
A
100
AcDbSymbolTable
70
1
0
ENDTAB
0
TABLE
2
BLOCK_RECORD
5
1
100
AcDbSymbolTable
70
1
0
BLOCK_RECORD
5
1F
100
AcDbSymbolTableRecord
100
AcDbBlockTableRecord
2
*MODEL_SPACE
0
BLOCK_RECORD
5
1B
100
AcDbSymbolTableRecord
100
AcDbBlockTableRecord
2
*PAPER_SPACE
0
ENDTAB
0
ENDSEC
0
SECTION
2
BLOCKS
0
BLOCK
5
20
100
AcDbEntity
100
AcDbBlockBegin
2
*MODEL_SPACE
0
ENDBLK
5
21
100
AcDbEntity
100
AcDbBlockEnd
0
BLOCK
5
1C
100
AcDbEntity
100
AcDbBlockBegin
2
*PAPER_SPACE
0
ENDBLK
5
1D
100
AcDbEntity
100
AcDbBlockEnd
0
ENDSEC
0
SECTION
2
ENTITIES
0
CIRCLE
5
100
100
AcDbEntity
8
0
100
AcDbCircle
10
0
20
-18.34
30
0
40
0.51000000000000001
0
CIRCLE
5
101
100
AcDbEntity
8
0
100
AcDbCircle
10
0
20
-20.960000000000001
30
0
40
0.51000000000000001
0
CIRCLE
5
102
100
AcDbEntity
8
0
100
AcDbCircle
10
0
20
-31.440000000000001
30
0
40
0.51000000000000001
0
CIRCLE
5
103
100
AcDbEntity
8
0
100
AcDbCircle
10
0
20
-28.82
30
0
40
0.51000000000000001
0
CIRCLE
5
104
100
AcDbEntity
8
0
100
AcDbCircle
10
0
20
-26.200000000000003
30
0
40
0.51000000000000001
0
CIRCLE
5
105
100
AcDbEntity
8
0
100
AcDbCircle
10
0
20
-23.580000000000002
30
0
40
0.51000000000000001
0
CIRCLE
5
106
100
AcDbEntity
8
0
100
AcDbCircle
10
0
20
-15.720000000000001
30
0
40
0.51000000000000001
0
CIRCLE
5
107
100
AcDbEntity
8
0
100
AcDbCircle
10
0
20
-13.100000000000001
30
0
40
0.51000000000000001
0
CIRCLE
5
108
100
AcDbEntity
8
0
100
AcDbCircle
10
0
20
-36.68
30
0
40
0.51000000000000001
0
CIRCLE
5
109
100
AcDbEntity
8
0
100
AcDbCircle
10
0
20
-34.060000000000002
30
0
40
0.51000000000000001
0
CIRCLE
5
110
100
AcDbEntity
8
0
100
AcDbCircle
10
0
20
0
30
0
40
0.51000000000000001
0
CIRCLE
5
111
100
AcDbEntity
8
0
100
AcDbCircle
10
0
20
-10.48
30
0
40
0.51000000000000001
0
CIRCLE
5
112
100
AcDbEntity
8
0
100
AcDbCircle
10
0
20
-7.8600000000000003
30
0
40
0.51000000000000001
0
CIRCLE
5
113
100
AcDbEntity
8
0
100
AcDbCircle
10
0
20
-5.2400000000000002
30
0
40
0.51000000000000001
0
CIRCLE
5
114
100
AcDbEntity
8
0
100
AcDbCircle
10
0
20
-2.6200000000000001
30
0
40
0.51000000000000001
0
LWPOLYLINE
5
115
100
AcDbEntity
8
0
100
AcDbPolyline
90
4
70
1
43
0.0
10
1.1499999999999997
20
-37.680000014901161
10
-1.1499999999999997
20
-37.680000014901161
10
-1.1499999999999997
20
1.0000000149011612
10
1.1499999999999997
20
1.0000000149011612
0
CIRCLE
5
116
100
AcDbEntity
8
0
100
AcDbCircle
10
-5.2400000000000002
20
-18.34
30
0
40
0.51000000000000045
0
CIRCLE
5
117
100
AcDbEntity
8
0
100
AcDbCircle
10
-5.2400000000000002
20
-28.82
30
0
40
0.51000000000000045
0
CIRCLE
5
118
100
AcDbEntity
8
0
100
AcDbCircle
10
-5.2400000000000002
20
-26.200000000000003
30
0
40
0.51000000000000045
0
CIRCLE
5
119
100
AcDbEntity
8
0
100
AcDbCircle
10
-5.2400000000000002
20
-23.580000000000002
30
0
40
0.51000000000000045
0
CIRCLE
5
120
100
AcDbEntity
8
0
100
AcDbCircle
10
-5.2400000000000002
20
-20.960000000000001
30
0
40
0.51000000000000045
0
CIRCLE
5
121
100
AcDbEntity
8
0
100
AcDbCircle
10
-5.2400000000000002
20
-5.2400000000000002
30
0
40
0.51000000000000045
0
CIRCLE
5
122
100
AcDbEntity
8
0
100
AcDbCircle
10
-5.2400000000000002
20
-34.060000000000002
30
0
40
0.51000000000000045
0
CIRCLE
5
123
100
AcDbEntity
8
0
100
AcDbCircle
10
-5.2400000000000002
20
-31.440000000000001
30
0
40
0.51000000000000045
0
CIRCLE
5
124
100
AcDbEntity
8
0
100
AcDbCircle
10
-5.2400000000000002
20
-36.68
30
0
40
0.51000000000000045
0
CIRCLE
5
125
100
AcDbEntity
8
0
100
AcDbCircle
10
-5.2400000000000002
20
-7.8600000000000003
30
0
40
0.51000000000000045
0
CIRCLE
5
126
100
AcDbEntity
8
0
100
AcDbCircle
10
-5.2400000000000002
20
-10.48
30
0
40
0.51000000000000045
0
CIRCLE
5
127
100
AcDbEntity
8
0
100
AcDbCircle
10
-5.2400000000000002
20
-2.6200000000000001
30
0
40
0.51000000000000045
0
CIRCLE
5
128
100
AcDbEntity
8
0
100
AcDbCircle
10
-5.2400000000000002
20
0
30
0
40
0.51000000000000045
0
CIRCLE
5
129
100
AcDbEntity
8
0
100
AcDbCircle
10
-5.2400000000000002
20
-13.100000000000001
30
0
40
0.51000000000000045
0
CIRCLE
5
130
100
AcDbEntity
8
0
100
AcDbCircle
10
-5.2400000000000002
20
-15.720000000000001
30
0
40
0.51000000000000045
0
LWPOLYLINE
5
131
100
AcDbEntity
8
0
100
AcDbPolyline
90
4
70
1
43
0.0
10
-6.3900000000000006
20
-37.680000014901161
10
-6.3900000000000006
20
1.000000014901159
10
-4.0899999999999999
20
1.0000000149011612
10
-4.0899999999999999
20
-37.680000014901161
0
CIRCLE
5
132
100
AcDbEntity
8
0
100
AcDbCircle
10
-10.48
20
0
30
0
40
0.50999999999999934
0
CIRCLE
5
133
100
AcDbEntity
8
0
100
AcDbCircle
10
-10.48
20
-2.6200000000000001
30
0
40
0.50999999999999934
0
CIRCLE
5
134
100
AcDbEntity
8
0
100
AcDbCircle
10
-10.48
20
-10.48
30
0
40
0.50999999999999934
0
CIRCLE
5
135
100
AcDbEntity
8
0
100
AcDbCircle
10
-10.48
20
-5.2400000000000002
30
0
40
0.50999999999999934
0
CIRCLE
5
136
100
AcDbEntity
8
0
100
AcDbCircle
10
-10.48
20
-7.8600000000000003
30
0
40
0.50999999999999934
0
CIRCLE
5
137
100
AcDbEntity
8
0
100
AcDbCircle
10
-10.48
20
-31.440000000000001
30
0
40
0.50999999999999934
0
CIRCLE
5
138
100
AcDbEntity
8
0
100
AcDbCircle
10
-10.48
20
-28.82
30
0
40
0.50999999999999934
0
CIRCLE
5
139
100
AcDbEntity
8
0
100
AcDbCircle
10
-10.48
20
-18.34
30
0
40
0.50999999999999934
0
CIRCLE
5
140
100
AcDbEntity
8
0
100
AcDbCircle
10
-10.48
20
-36.68
30
0
40
0.50999999999999934
0
CIRCLE
5
141
100
AcDbEntity
8
0
100
AcDbCircle
10
-10.48
20
-13.100000000000001
30
0
40
0.50999999999999934
0
CIRCLE
5
142
100
AcDbEntity
8
0
100
AcDbCircle
10
-10.48
20
-15.720000000000001
30
0
40
0.50999999999999934
0
CIRCLE
5
143
100
AcDbEntity
8
0
100
AcDbCircle
10
-10.48
20
-23.580000000000002
30
0
40
0.50999999999999934
0
CIRCLE
5
144
100
AcDbEntity
8
0
100
AcDbCircle
10
-10.48
20
-26.200000000000003
30
0
40
0.50999999999999934
0
CIRCLE
5
145
100
AcDbEntity
8
0
100
AcDbCircle
10
-10.48
20
-34.060000000000002
30
0
40
0.50999999999999934
0
CIRCLE
5
146
100
AcDbEntity
8
0
100
AcDbCircle
10
-10.48
20
-20.960000000000001
30
0
40
0.50999999999999934
0
LWPOLYLINE
5
147
100
AcDbEntity
8
0
100
AcDbPolyline
90
4
70
1
43
0.0
10
-11.630000000000001
20
-37.680000014901161
10
-11.630000000000001
20
1.000000014901159
10
-9.3300000000000001
20
1.0000000149011612
10
-9.3300000000000001
20
-37.680000014901161
0
CIRCLE
5
148
100
AcDbEntity
8
0
100
AcDbCircle
10
-15.720000000000001
20
-28.82
30
0
40
0.50999999999999934
0
CIRCLE
5
149
100
AcDbEntity
8
0
100
AcDbCircle
10
-15.720000000000001
20
-15.720000000000001
30
0
40
0.50999999999999934
0
CIRCLE
5
150
100
AcDbEntity
8
0
100
AcDbCircle
10
-15.720000000000001
20
-18.34
30
0
40
0.50999999999999934
0
CIRCLE
5
151
100
AcDbEntity
8
0
100
AcDbCircle
10
-15.720000000000001
20
-20.960000000000001
30
0
40
0.50999999999999934
0
CIRCLE
5
152
100
AcDbEntity
8
0
100
AcDbCircle
10
-15.720000000000001
20
-23.580000000000002
30
0
40
0.50999999999999934
0
CIRCLE
5
153
100
AcDbEntity
8
0
100
AcDbCircle
10
-15.720000000000001
20
-26.200000000000003
30
0
40
0.50999999999999934
0
CIRCLE
5
154
100
AcDbEntity
8
0
100
AcDbCircle
10
-15.720000000000001
20
-31.440000000000001
30
0
40
0.50999999999999934
0
CIRCLE
5
155
100
AcDbEntity
8
0
100
AcDbCircle
10
-15.720000000000001
20
0
30
0
40
0.50999999999999934
0
CIRCLE
5
156
100
AcDbEntity
8
0
100
AcDbCircle
10
-15.720000000000001
20
-2.6200000000000001
30
0
40
0.50999999999999934
0
CIRCLE
5
157
100
AcDbEntity
8
0
100
AcDbCircle
10
-15.720000000000001
20
-7.8600000000000003
30
0
40
0.50999999999999934
0
CIRCLE
5
158
100
AcDbEntity
8
0
100
AcDbCircle
10
-15.720000000000001
20
-36.68
30
0
40
0.50999999999999934
0
CIRCLE
5
159
100
AcDbEntity
8
0
100
AcDbCircle
10
-15.720000000000001
20
-13.100000000000001
30
0
40
0.50999999999999934
0
CIRCLE
5
160
100
AcDbEntity
8
0
100
AcDbCircle
10
-15.720000000000001
20
-5.2400000000000002
30
0
40
0.50999999999999934
0
CIRCLE
5
161
100
AcDbEntity
8
0
100
AcDbCircle
10
-15.720000000000001
20
-10.48
30
0
40
0.50999999999999934
0
CIRCLE
5
162
100
AcDbEntity
8
0
100
AcDbCircle
10
-15.720000000000001
20
-34.060000000000002
30
0
40
0.50999999999999934
0
LWPOLYLINE
5
163
100
AcDbEntity
8
0
100
AcDbPolyline
90
4
70
1
43
0.0
10
-16.870000000000001
20
-37.680000014901161
10
-16.870000000000001
20
1.0000000149011568
10
-14.57
20
1.0000000149011568
10
-14.57
20
-37.680000014901161
0
CIRCLE
5
164
100
AcDbEntity
8
0
100
AcDbCircle
10
-20.960000000000001
20
-2.6200000000000001
30
0
40
0.51000000000000156
0
CIRCLE
5
165
100
AcDbEntity
8
0
100
AcDbCircle
10
-20.960000000000001
20
-5.2400000000000002
30
0
40
0.51000000000000156
0
CIRCLE
5
166
100
AcDbEntity
8
0
100
AcDbCircle
10
-20.960000000000001
20
0
30
0
40
0.51000000000000156
0
CIRCLE
5
167
100
AcDbEntity
8
0
100
AcDbCircle
10
-20.960000000000001
20
-10.48
30
0
40
0.51000000000000156
0
CIRCLE
5
168
100
AcDbEntity
8
0
100
AcDbCircle
10
-20.960000000000001
20
-7.8600000000000003
30
0
40
0.51000000000000156
0
CIRCLE
5
169
100
AcDbEntity
8
0
100
AcDbCircle
10
-20.960000000000001
20
-13.100000000000001
30
0
40
0.51000000000000156
0
CIRCLE
5
170
100
AcDbEntity
8
0
100
AcDbCircle
10
-20.960000000000001
20
-36.68
30
0
40
0.51000000000000156
0
CIRCLE
5
171
100
AcDbEntity
8
0
100
AcDbCircle
10
-20.960000000000001
20
-31.440000000000001
30
0
40
0.51000000000000156
0
CIRCLE
5
172
100
AcDbEntity
8
0
100
AcDbCircle
10
-20.960000000000001
20
-34.060000000000002
30
0
40
0.51000000000000156
0
CIRCLE
5
173
100
AcDbEntity
8
0
100
AcDbCircle
10
-20.960000000000001
20
-28.82
30
0
40
0.51000000000000156
0
CIRCLE
5
174
100
AcDbEntity
8
0
100
AcDbCircle
10
-20.960000000000001
20
-26.200000000000003
30
0
40
0.51000000000000156
0
CIRCLE
5
175
100
AcDbEntity
8
0
100
AcDbCircle
10
-20.960000000000001
20
-23.580000000000002
30
0
40
0.51000000000000156
0
CIRCLE
5
176
100
AcDbEntity
8
0
100
AcDbCircle
10
-20.960000000000001
20
-20.960000000000001
30
0
40
0.51000000000000156
0
CIRCLE
5
177
100
AcDbEntity
8
0
100
AcDbCircle
10
-20.960000000000001
20
-18.34
30
0
40
0.51000000000000156
0
CIRCLE
5
178
100
AcDbEntity
8
0
100
AcDbCircle
10
-20.960000000000001
20
-15.720000000000001
30
0
40
0.51000000000000156
0
LWPOLYLINE
5
179
100
AcDbEntity
8
0
100
AcDbPolyline
90
4
70
1
43
0.0
10
-22.109999999999999
20
-37.680000014901161
10
-22.109999999999999
20
1.000000014901159
10
-19.810000000000002
20
1.0000000149011612
10
-19.810000000000002
20
-37.680000014901161
0
LINE
5
180
100
AcDbEntity
8
0
100
AcDbLine
10
-22.430000000000003
20
1.0000000149011612
30
0
11
-24.729999999999997
21
1.000000014901159
31
0
0
CIRCLE
5
181
100
AcDbEntity
8
0
100
AcDbCircle
10
-26.200000000000003
20
-2.6200000000000001
30
0
40
0.51000000000000156
0
CIRCLE
5
182
100
AcDbEntity
8
0
100
AcDbCircle
10
-26.200000000000003
20
0
30
0
40
0.51000000000000156
0
CIRCLE
5
183
100
AcDbEntity
8
0
100
AcDbCircle
10
-26.200000000000003
20
-5.2400000000000002
30
0
40
0.51000000000000156
0
CIRCLE
5
184
100
AcDbEntity
8
0
100
AcDbCircle
10
-26.200000000000003
20
-7.8600000000000003
30
0
40
0.51000000000000156
0
CIRCLE
5
185
100
AcDbEntity
8
0
100
AcDbCircle
10
-26.200000000000003
20
-10.48
30
0
40
0.51000000000000156
0
CIRCLE
5
186
100
AcDbEntity
8
0
100
AcDbCircle
10
-26.200000000000003
20
-13.100000000000001
30
0
40
0.51000000000000156
0
CIRCLE
5
187
100
AcDbEntity
8
0
100
AcDbCircle
10
-26.200000000000003
20
-36.68
30
0
40
0.51000000000000156
0
CIRCLE
5
188
100
AcDbEntity
8
0
100
AcDbCircle
10
-26.200000000000003
20
-34.060000000000002
30
0
40
0.51000000000000156
0
CIRCLE
5
189
100
AcDbEntity
8
0
100
AcDbCircle
10
-26.200000000000003
20
-31.440000000000001
30
0
40
0.51000000000000156
0
CIRCLE
5
190
100
AcDbEntity
8
0
100
AcDbCircle
10
-26.200000000000003
20
-28.82
30
0
40
0.51000000000000156
0
CIRCLE
5
191
100
AcDbEntity
8
0
100
AcDbCircle
10
-26.200000000000003
20
-26.200000000000003
30
0
40
0.51000000000000156
0
CIRCLE
5
192
100
AcDbEntity
8
0
100
AcDbCircle
10
-26.200000000000003
20
-23.580000000000002
30
0
40
0.51000000000000156
0
CIRCLE
5
193
100
AcDbEntity
8
0
100
AcDbCircle
10
-26.200000000000003
20
-20.960000000000001
30
0
40
0.51000000000000156
0
CIRCLE
5
194
100
AcDbEntity
8
0
100
AcDbCircle
10
-26.200000000000003
20
-18.34
30
0
40
0.51000000000000156
0
CIRCLE
5
195
100
AcDbEntity
8
0
100
AcDbCircle
10
-26.200000000000003
20
-15.720000000000001
30
0
40
0.51000000000000156
0
LWPOLYLINE
5
196
100
AcDbEntity
8
0
100
AcDbPolyline
90
4
70
1
43
0.0
10
-27.349999999999998
20
-37.680000014901161
10
-27.349999999999998
20
1.000000014901159
10
-25.050000000000004
20
1.0000000149011612
10
-25.050000000000004
20
-37.680000014901161
0
CIRCLE
5
197
100
AcDbEntity
8
0
100
AcDbCircle
10
-31.440000000000001
20
-2.6200000000000001
30
0
40
0.51000000000000156
0
CIRCLE
5
198
100
AcDbEntity
8
0
100
AcDbCircle
10
-31.440000000000001
20
0
30
0
40
0.51000000000000156
0
CIRCLE
5
199
100
AcDbEntity
8
0
100
AcDbCircle
10
-31.440000000000001
20
-5.2400000000000002
30
0
40
0.51000000000000156
0
CIRCLE
5
200
100
AcDbEntity
8
0
100
AcDbCircle
10
-31.440000000000001
20
-7.8600000000000003
30
0
40
0.51000000000000156
0
CIRCLE
5
201
100
AcDbEntity
8
0
100
AcDbCircle
10
-31.440000000000001
20
-10.48
30
0
40
0.51000000000000156
0
CIRCLE
5
202
100
AcDbEntity
8
0
100
AcDbCircle
10
-31.440000000000001
20
-13.100000000000001
30
0
40
0.51000000000000156
0
CIRCLE
5
203
100
AcDbEntity
8
0
100
AcDbCircle
10
-31.440000000000001
20
-36.68
30
0
40
0.51000000000000156
0
CIRCLE
5
204
100
AcDbEntity
8
0
100
AcDbCircle
10
-31.440000000000001
20
-34.060000000000002
30
0
40
0.51000000000000156
0
CIRCLE
5
205
100
AcDbEntity
8
0
100
AcDbCircle
10
-31.440000000000001
20
-31.440000000000001
30
0
40
0.51000000000000156
0
CIRCLE
5
206
100
AcDbEntity
8
0
100
AcDbCircle
10
-31.440000000000001
20
-28.82
30
0
40
0.51000000000000156
0
CIRCLE
5
207
100
AcDbEntity
8
0
100
AcDbCircle
10
-31.440000000000001
20
-26.200000000000003
30
0
40
0.51000000000000156
0
CIRCLE
5
208
100
AcDbEntity
8
0
100
AcDbCircle
10
-31.440000000000001
20
-23.580000000000002
30
0
40
0.51000000000000156
0
CIRCLE
5
209
100
AcDbEntity
8
0
100
AcDbCircle
10
-31.440000000000001
20
-20.960000000000001
30
0
40
0.51000000000000156
0
CIRCLE
5
210
100
AcDbEntity
8
0
100
AcDbCircle
10
-31.440000000000001
20
-18.34
30
0
40
0.51000000000000156
0
CIRCLE
5
211
100
AcDbEntity
8
0
100
AcDbCircle
10
-31.440000000000001
20
-15.720000000000001
30
0
40
0.51000000000000156
0
LWPOLYLINE
5
212
100
AcDbEntity
8
0
100
AcDbPolyline
90
4
70
1
43
0.0
10
-32.589999999999996
20
-37.680000014901161
10
-32.589999999999996
20
1.000000014901159
10
-30.290000000000003
20
1.0000000149011612
10
-30.290000000000003
20
-37.680000014901161
0
LWPOLYLINE
5
213
100
AcDbEntity
8
0
100
AcDbPolyline
90
4
70
1
43
0.0
10
-158.79223988552945
20
-82.736678661972917
10
-53.79223988552944
20
-82.736678661972917
10
-53.79223988552944
20
67.263321338027083
10
-158.79223988552945
20
67.263321338027083
0
ENDSEC
0
SECTION
2
OBJECTS
0
DICTIONARY
5
C
100
AcDbDictionary
3
ACAD_GROUP
350
D
3
ACAD_MLINESTYLE
350
17
0
DICTIONARY
5
D
100
AcDbDictionary
0
DICTIONARY
5
1A
330
C
100
AcDbDictionary
0
DICTIONARY
5
17
100
AcDbDictionary
0
ENDSEC
0
EOF
