  0
SECTION
  2
HEADER
  9
$ACADVER
  1
AC1014
  9
$ACADMAINTVER
 70
     9
  9
$DWGCODEPAGE
  3
UNDEFINED
  9
$INSBASE
 10
0.0
 20
0.0
 30
0.0
  9
$EXTMIN
 10
1.000000000000000E+20
 20
1.000000000000000E+20
 30
1.000000000000000E+20
  9
$EXTMAX
 10
-1.000000000000000E+20
 20
-1.000000000000000E+20
 30
-1.000000000000000E+20
  9
$LIMMIN
 10
0.0
 20
0.0
  9
$LIMMAX
 10
12.0
 20
9.0
  9
$ORTHOMODE
 70
     0
  9
$REGENMODE
 70
     1
  9
$FILLMODE
 70
     1
  9
$QTEXTMODE
 70
     0
  9
$MIRRTEXT
 70
     1
  9
$DRAGMODE
 70
     2
  9
$LTSCALE
 40
1.0
  9
$OSMODE
 70
    37
  9
$ATTMODE
 70
     1
  9
$TEXTSIZE
 40
0.2
  9
$TRACEWID
 40
0.05
  9
$TEXTSTYLE
  7
STANDARD
  9
$CLAYER
  8
0
  9
$CELTYPE
  6
BYLAYER
  9
$CECOLOR
 62
   256
  9
$CELTSCALE
 40
1.0
  9
$DELOBJ
 70
     1
  9
$DISPSILH
 70
     0
  9
$DIMSCALE
 40
1.0
  9
$DIMASZ
 40
0.18
  9
$DIMEXO
 40
0.0625
  9
$DIMDLI
 40
0.38
  9
$DIMRND
 40
0.0
  9
$DIMDLE
 40
0.0
  9
$DIMEXE
 40
0.18
  9
$DIMTP
 40
0.0
  9
$DIMTM
 40
0.0
  9
$DIMTXT
 40
0.18
  9
$DIMCEN
 40
0.09
  9
$DIMTSZ
 40
0.0
  9
$DIMTOL
 70
     0
  9
$DIMLIM
 70
     0
  9
$DIMTIH
 70
     1
  9
$DIMTOH
 70
     1
  9
$DIMSE1
 70
     0
  9
$DIMSE2
 70
     0
  9
$DIMTAD
 70
     0
  9
$DIMZIN
 70
     0
  9
$DIMBLK
  1

  9
$DIMASO
 70
     1
  9
$DIMSHO
 70
     1
  9
$DIMPOST
  1

  9
$DIMAPOST
  1

  9
$DIMALT
 70
     0
  9
$DIMALTD
 70
     2
  9
$DIMALTF
 40
25.4
  9
$DIMLFAC
 40
1.0
  9
$DIMTOFL
 70
     0
  9
$DIMTVP
 40
0.0
  9
$DIMTIX
 70
     0
  9
$DIMSOXD
 70
     0
  9
$DIMSAH
 70
     0
  9
$DIMBLK1
  1

  9
$DIMBLK2
  1

  9
$DIMSTYLE
  2
STANDARD
  9
$DIMCLRD
 70
     0
  9
$DIMCLRE
 70
     0
  9
$DIMCLRT
 70
     0
  9
$DIMTFAC
 40
1.0
  9
$DIMGAP
 40
0.09
  9
$DIMJUST
 70
     0
  9
$DIMSD1
 70
     0
  9
$DIMSD2
 70
     0
  9
$DIMTOLJ
 70
     1
  9
$DIMTZIN
 70
     0
  9
$DIMALTZ
 70
     0
  9
$DIMALTTZ
 70
     0
  9
$DIMFIT
 70
     3
  9
$DIMUPT
 70
     0
  9
$DIMUNIT
 70
     2
  9
$DIMDEC
 70
     4
  9
$DIMTDEC
 70
     4
  9
$DIMALTU
 70
     2
  9
$DIMALTTD
 70
     2
  9
$DIMTXSTY
  7
STANDARD
  9
$DIMAUNIT
 70
     0
  9
$LUNITS
 70
     2
  9
$LUPREC
 70
     4
  9
$SKETCHINC
 40
0.1
  9
$FILLETRAD
 40
0.5
  9
$AUNITS
 70
     0
  9
$AUPREC
 70
     0
  9
$MENU
  1
.
  9
$ELEVATION
 40
0.0
  9
$PELEVATION
 40
0.0
  9
$THICKNESS
 40
0.0
  9
$LIMCHECK
 70
     0
  9
$CHAMFERA
 40
0.5
  9
$CHAMFERB
 40
0.5
  9
$CHAMFERC
 40
1.0
  9
$CHAMFERD
 40
0.0
  9
$SKPOLY
 70
     0
  9
$TDCREATE
 40
2458877.552997673
  9
$TDUPDATE
 40
2458877.552997673
  9
$TDINDWG
 40
0.0000000116
  9
$TDUSRTIMER
 40
0.0000000116
  9
$USRTIMER
 70
     1
  9
$ANGBASE
 50
0.0
  9
$ANGDIR
 70
     0
  9
$PDMODE
 70
     0
  9
$PDSIZE
 40
0.0
  9
$PLINEWID
 40
0.0
  9
$COORDS
 70
     1
  9
$SPLFRAME
 70
     0
  9
$SPLINETYPE
 70
     6
  9
$SPLINESEGS
 70
     8
  9
$ATTDIA
 70
     0
  9
$ATTREQ
 70
     1
  9
$HANDLING
 70
     1
  9
$HANDSEED
  5
1D7
  9
$SURFTAB1
 70
     6
  9
$SURFTAB2
 70
     6
  9
$SURFTYPE
 70
     6
  9
$SURFU
 70
     6
  9
$SURFV
 70
     6
  9
$UCSNAME
  2

  9
$UCSORG
 10
0.0
 20
0.0
 30
0.0
  9
$UCSXDIR
 10
1.0
 20
0.0
 30
0.0
  9
$UCSYDIR
 10
0.0
 20
1.0
 30
0.0
  9
$PUCSNAME
  2

  9
$PUCSORG
 10
0.0
 20
0.0
 30
0.0
  9
$PUCSXDIR
 10
1.0
 20
0.0
 30
0.0
  9
$PUCSYDIR
 10
0.0
 20
1.0
 30
0.0
  9
$USERI1
 70
     0
  9
$USERI2
 70
     0
  9
$USERI3
 70
     0
  9
$USERI4
 70
     0
  9
$USERI5
 70
     0
  9
$USERR1
 40
0.0
  9
$USERR2
 40
0.0
  9
$USERR3
 40
0.0
  9
$USERR4
 40
0.0
  9
$USERR5
 40
0.0
  9
$WORLDVIEW
 70
     1
  9
$SHADEDGE
 70
     3
  9
$SHADEDIF
 70
    70
  9
$TILEMODE
 70
     1
  9
$MAXACTVP
 70
    64
  9
$PINSBASE
 10
0.0
 20
0.0
 30
0.0
  9
$PLIMCHECK
 70
     0
  9
$PEXTMIN
 10
1.000000000000000E+20
 20
1.000000000000000E+20
 30
1.000000000000000E+20
  9
$PEXTMAX
 10
-1.000000000000000E+20
 20
-1.000000000000000E+20
 30
-1.000000000000000E+20
  9
$PLIMMIN
 10
0.0
 20
0.0
  9
$PLIMMAX
 10
12.0
 20
9.0
  9
$UNITMODE
 70
     0
  9
$VISRETAIN
 70
     1
  9
$PLINEGEN
 70
     0
  9
$PSLTSCALE
 70
     1
  9
$TREEDEPTH
 70
  3020
  9
$PICKSTYLE
 70
     1
  9
$CMLSTYLE
  2
STANDARD
  9
$CMLJUST
 70
     0
  9
$CMLSCALE
 40
1.0
  9
$PROXYGRAPHICS
 70
     1
  9
$MEASUREMENT
 70
     0
  0
ENDSEC
  0
SECTION
  2
CLASSES
  0
CLASS
  1
ACDBDICTIONARYWDFLT
  2
AcDbDictionaryWithDefault
  3
ObjectDBX Classes
 90
        0
280
     0
281
     0
  0
CLASS
  1
VISUALSTYLE
  2
AcDbVisualStyle
  3
ObjectDBX Classes
 90
     4095
280
     0
281
     0
  0
CLASS
  1
MATERIAL
  2
AcDbMaterial
  3
ObjectDBX Classes
 90
     1153
280
     0
281
     0
  0
CLASS
  1
SUN
  2
AcDbSun
  3
SCENEOE
 90
     1024
280
     0
281
     0
  0
CLASS
  1
DICTIONARYVAR
  2
AcDbDictionaryVar
  3
ObjectDBX Classes
 90
        0
280
     0
281
     0
  0
CLASS
  1
XRECORD
  2
AcDbXrecord
  3
AutoCAD 2000
 90
        0
280
     0
281
     0
  0
CLASS
  1
LWPOLYLINE
  2
AcDbPolyline
  3
AutoCAD 2000
 90
        0
280
     0
281
     1
  0
CLASS
  1
HATCH
  2
AcDbHatch
  3
AutoCAD 2000
 90
        0
280
     0
281
     1
  0
CLASS
  1
ACDBPLACEHOLDER
  2
AcDbPlaceHolder
  3
ObjectDBX Classes
 90
        0
280
     0
281
     0
  0
CLASS
  1
LAYOUT
  2
AcDbLayout
  3
ObjectDBX Classes
 90
        0
280
     0
281
     0
  0
ENDSEC
  0
SECTION
  2
TABLES
  0
TABLE
  2
VPORT
  5
8
330
0
100
AcDbSymbolTable
 70
     1
  0
VPORT
  5
29
330
8
100
AcDbSymbolTableRecord
100
AcDbViewportTableRecord
  2
*ACTIVE
 70
     0
 10
0.0
 20
0.0
 11
1.0
 21
1.0
 12
0.0
 22
0.0
 13
0.0
 23
0.0
 14
0.5
 24
0.5
 15
0.5
 25
0.5
 16
0.0
 26
0.0
 36
1.0
 17
344.999999913746
 27
-174.9999999562555
 37
0.0
 40
349.9999999125109
 41
1.971428571428487
 42
50.0
 43
0.0
 44
0.0
 50
0.0
 51
0.0
 71
     0
 72
   100
 73
     1
 74
     3
 75
     0
 76
     0
 77
     0
 78
     0
  0
ENDTAB
  0
TABLE
  2
LTYPE
  5
5
330
0
100
AcDbSymbolTable
 70
     1
  0
LTYPE
  5
14
330
5
100
AcDbSymbolTableRecord
100
AcDbLinetypeTableRecord
  2
BYBLOCK
 70
     0
  3

 72
    65
 73
     0
 40
0.0
  0
LTYPE
  5
15
330
5
100
AcDbSymbolTableRecord
100
AcDbLinetypeTableRecord
  2
BYLAYER
 70
     0
  3

 72
    65
 73
     0
 40
0.0
  0
LTYPE
  5
16
330
5
100
AcDbSymbolTableRecord
100
AcDbLinetypeTableRecord
  2
CONTINUOUS
 70
     0
  3
Solid line
 72
    65
 73
     0
 40
0.0
  0
ENDTAB
  0
TABLE
  2
LAYER
  5
2
330
0
100
AcDbSymbolTable
 70
     2
  0
LAYER
  5
10
330
2
100
AcDbSymbolTableRecord
100
AcDbLayerTableRecord
  2
0
 70
     0
 62
     7
  6
CONTINUOUS
  0
LAYER
  5
40
330
2
100
AcDbSymbolTableRecord
100
AcDbLayerTableRecord
  2
LAAG_1
 70
     0
 62
     7
  6
CONTINUOUS
  0
ENDTAB
  0
TABLE
  2
STYLE
  5
3
330
0
100
AcDbSymbolTable
 70
     1
  0
STYLE
  5
11
330
3
100
AcDbSymbolTableRecord
100
AcDbTextStyleTableRecord
  2
STANDARD
 70
     0
 40
0.0
 41
1.0
 50
0.0
 71
     0
 42
0.2
  3
txt
  4

  0
ENDTAB
  0
TABLE
  2
VIEW
  5
6
330
0
100
AcDbSymbolTable
 70
     0
  0
ENDTAB
  0
TABLE
  2
UCS
  5
7
330
0
100
AcDbSymbolTable
 70
     0
  0
ENDTAB
  0
TABLE
  2
APPID
  5
9
330
0
100
AcDbSymbolTable
 70
     1
  0
APPID
  5
12
330
9
100
AcDbSymbolTableRecord
100
AcDbRegAppTableRecord
  2
ACAD
 70
     0
  0
ENDTAB
  0
TABLE
  2
DIMSTYLE
  5
A
330
0
100
AcDbSymbolTable
 70
     1
  0
DIMSTYLE
105
27
330
A
100
AcDbSymbolTableRecord
100
AcDbDimStyleTableRecord
  2
STANDARD
 70
     0
  3

  4

  5

  6

  7

 40
1.0
 41
0.18
 42
0.0625
 43
0.38
 44
0.18
 45
0.0
 46
0.0
 47
0.0
 48
0.0
140
0.18
141
0.09
142
0.0
143
25.4
144
1.0
145
0.0
146
1.0
147
0.09
 71
     0
 72
     0
 73
     1
 74
     1
 75
     0
 76
     0
 77
     0
 78
     0
170
     0
171
     2
172
     0
173
     0
174
     0
175
     0
176
     0
177
     0
178
     0
270
     2
271
     4
272
     4
273
     2
274
     2
340
11
275
     0
280
     0
281
     0
282
     0
283
     1
284
     0
285
     0
286
     0
287
     3
288
     0
  0
ENDTAB
  0
TABLE
  2
BLOCK_RECORD
  5
1
330
0
100
AcDbSymbolTable
 70
     4
  0
BLOCK_RECORD
  5
1F
330
1
100
AcDbSymbolTableRecord
100
AcDbBlockTableRecord
  2
*MODEL_SPACE
  0
BLOCK_RECORD
  5
1B
330
1
100
AcDbSymbolTableRecord
100
AcDbBlockTableRecord
  2
*PAPER_SPACE
  0
BLOCK_RECORD
  5
41
330
1
100
AcDbSymbolTableRecord
100
AcDbBlockTableRecord
  2
BLOCK_2
  0
BLOCK_RECORD
  5
45
330
1
100
AcDbSymbolTableRecord
100
AcDbBlockTableRecord
  2
BLOCK_3
  0
BLOCK_RECORD
  5
49
330
1
100
AcDbSymbolTableRecord
100
AcDbBlockTableRecord
  2
BLOCK_4
  0
ENDTAB
  0
ENDSEC
  0
SECTION
  2
BLOCKS
  0
BLOCK
  5
20
330
1F
100
AcDbEntity
  8
0
100
AcDbBlockBegin
  2
*MODEL_SPACE
 70
     0
 10
0.0
 20
0.0
 30
0.0
  3
*MODEL_SPACE
  1

  0
ENDBLK
  5
21
330
1F
100
AcDbEntity
  8
0
100
AcDbBlockEnd
  0
BLOCK
  5
1C
330
1B
100
AcDbEntity
 67
     1
  8
0
100
AcDbBlockBegin
  2
*PAPER_SPACE
 70
     0
 10
0.0
 20
0.0
 30
0.0
  3
*PAPER_SPACE
  1

  0
ENDBLK
  5
1D
330
1B
100
AcDbEntity
 67
     1
  8
0
100
AcDbBlockEnd
  0
BLOCK
  5
43
330
41
100
AcDbEntity
  8
0
100
AcDbBlockBegin
  2
BLOCK_2
 70
     0
 10
0.0
 20
0.0
 30
0.0
  3
BLOCK_2
  1

  0
INSERT
  5
46
330
41
100
AcDbEntity
  8
LAAG_1
100
AcDbBlockReference
  2
BLOCK_3
 10
0.0
 20
0.0
 30
0.0
  0
INSERT
  5
4A
330
41
100
AcDbEntity
  8
LAAG_1
100
AcDbBlockReference
  2
BLOCK_4
 10
0.0
 20
0.0
 30
0.0
  0
ENDBLK
  5
44
330
41
100
AcDbEntity
  8
0
100
AcDbBlockEnd
  0
BLOCK
  5
47
330
45
100
AcDbEntity
  8
0
100
AcDbBlockBegin
  2
BLOCK_3
 70
     0
 10
0.0
 20
0.0
 30
0.0
  3
BLOCK_3
  1

  0
ENDBLK
  5
48
330
45
100
AcDbEntity
  8
0
100
AcDbBlockEnd
  0
BLOCK
  5
4B
330
49
100
AcDbEntity
  8
0
100
AcDbBlockBegin
  2
BLOCK_4
 70
     0
 10
0.0
 20
0.0
 30
0.0
  3
BLOCK_4
  1

  0
POLYLINE
  5
4D
330
49
100
AcDbEntity
  8
LAAG_1
 62
   250
100
AcDb2dPolyline
 66
     1
 10
0.0
 20
0.0
 30
0.0
  0
VERTEX
  5
4E
330
4D
100
AcDbEntity
  8
LAAG_1
 62
   250
100
AcDbVertex
100
AcDb2dVertex
 10
87.91574997802108
 20
-60.6389722070626
 30
0.0
  0
VERTEX
  5
4F
330
4D
100
AcDbEntity
  8
LAAG_1
 62
   250
100
AcDbVertex
100
AcDb2dVertex
 10
81.91499997952118
 20
-60.6389722070626
 30
0.0
  0
VERTEX
  5
50
330
4D
100
AcDbEntity
  8
LAAG_1
 62
   250
100
AcDbVertex
100
AcDb2dVertex
 10
81.91499997952118
 20
-40.63999998983994
 30
0.0
  0
VERTEX
  5
51
330
4D
100
AcDbEntity
  8
LAAG_1
 62
   250
100
AcDbVertex
100
AcDb2dVertex
 10
87.91574997802108
 20
-40.63999998983994
 30
0.0
  0
VERTEX
  5
52
330
4D
100
AcDbEntity
  8
LAAG_1
 62
   250
100
AcDbVertex
100
AcDb2dVertex
 10
87.91574997802108
 20
-60.6389722070626
 30
0.0
  0
SEQEND
  5
53
330
4D
100
AcDbEntity
  8
LAAG_1
 62
   250
  0
POLYLINE
  5
54
330
49
100
AcDbEntity
  8
LAAG_1
 62
   250
100
AcDb2dPolyline
 66
     1
 10
0.0
 20
0.0
 30
0.0
  0
VERTEX
  5
55
330
54
100
AcDbEntity
  8
LAAG_1
 62
   250
100
AcDbVertex
100
AcDb2dVertex
 10
87.91574997802108
 20
-130.6406666340067
 30
0.0
  0
VERTEX
  5
56
330
54
100
AcDbEntity
  8
LAAG_1
 62
   250
100
AcDbVertex
100
AcDb2dVertex
 10
81.91499997952118
 20
-130.6406666340067
 30
0.0
  0
VERTEX
  5
57
330
54
100
AcDbEntity
  8
LAAG_1
 62
   250
100
AcDbVertex
100
AcDb2dVertex
 10
81.91499997952118
 20
-110.6416944167841
 30
0.0
  0
VERTEX
  5
58
330
54
100
AcDbEntity
  8
LAAG_1
 62
   250
100
AcDbVertex
100
AcDb2dVertex
 10
87.91574997802108
 20
-110.6416944167841
 30
0.0
  0
VERTEX
  5
59
330
54
100
AcDbEntity
  8
LAAG_1
 62
   250
100
AcDbVertex
100
AcDb2dVertex
 10
87.91574997802108
 20
-130.6406666340067
 30
0.0
  0
SEQEND
  5
5A
330
54
100
AcDbEntity
  8
LAAG_1
 62
   250
  0
POLYLINE
  5
5B
330
49
100
AcDbEntity
  8
LAAG_1
 62
   250
100
AcDb2dPolyline
 66
     1
 10
0.0
 20
0.0
 30
0.0
  0
VERTEX
  5
5C
330
5B
100
AcDbEntity
  8
LAAG_1
 62
   250
100
AcDbVertex
100
AcDb2dVertex
 10
39.91680554557655
 20
-88.64247220006176
 30
0.0
  0
VERTEX
  5
5D
330
5B
100
AcDbEntity
  8
LAAG_1
 62
   250
100
AcDbVertex
100
AcDb2dVertex
 10
39.91680554557655
 20
-82.64172220156188
 30
0.0
  0
VERTEX
  5
5E
330
5B
100
AcDbEntity
  8
LAAG_1
 62
   250
100
AcDbVertex
100
AcDb2dVertex
 10
59.91577776279889
 20
-82.64172220156188
 30
0.0
  0
VERTEX
  5
5F
330
5B
100
AcDbEntity
  8
LAAG_1
 62
   250
100
AcDbVertex
100
AcDb2dVertex
 10
59.91577776279889
 20
-88.64247220006176
 30
0.0
  0
VERTEX
  5
60
330
5B
100
AcDbEntity
  8
LAAG_1
 62
   250
100
AcDbVertex
100
AcDb2dVertex
 10
39.91680554557655
 20
-88.64247220006176
 30
0.0
  0
SEQEND
  5
61
330
5B
100
AcDbEntity
  8
LAAG_1
 62
   250
  0
POLYLINE
  5
62
330
49
100
AcDbEntity
  8
LAAG_1
 62
   250
100
AcDb2dPolyline
 66
     1
 10
0.0
 20
0.0
 30
0.0
  0
VERTEX
  5
63
330
62
100
AcDbEntity
  8
LAAG_1
 62
   250
100
AcDbVertex
100
AcDb2dVertex
 10
159.9176944044652
 20
-33.21049999169749
 30
0.0
  0
VERTEX
  5
64
330
62
100
AcDbEntity
  8
LAAG_1
 62
   250
100
AcDbVertex
100
AcDb2dVertex
 10
84.91713886765962
 20
-33.21049999169749
 30
0.0
  0
VERTEX
  5
65
330
62
100
AcDbEntity
  8
LAAG_1
 62
   250
100
AcDbVertex
100
AcDb2dVertex
 10
84.91713886765962
 20
-27.2097499931976
 30
0.0
  0
VERTEX
  5
66
330
62
100
AcDbEntity
  8
LAAG_1
 62
   250
100
AcDbVertex
100
AcDb2dVertex
 10
159.9176944044652
 20
-27.2097499931976
 30
0.0
  0
SEQEND
  5
67
330
62
100
AcDbEntity
  8
LAAG_1
 62
   250
  0
POLYLINE
  5
68
330
49
100
AcDbEntity
  8
LAAG_1
 62
   250
100
AcDb2dPolyline
 66
     1
 10
0.0
 20
0.0
 30
0.0
  0
VERTEX
  5
69
330
68
100
AcDbEntity
  8
LAAG_1
 62
   250
100
AcDbVertex
100
AcDb2dVertex
 10
159.9176944044652
 20
-88.64247220006176
 30
0.0
  0
VERTEX
  5
6A
330
68
100
AcDbEntity
  8
LAAG_1
 62
   250
100
AcDbVertex
100
AcDb2dVertex
 10
84.91713886765962
 20
-88.64247220006176
 30
0.0
  0
VERTEX
  5
6B
330
68
100
AcDbEntity
  8
LAAG_1
 62
   250
100
AcDbVertex
100
AcDb2dVertex
 10
84.91713886765962
 20
-82.64172220156188
 30
0.0
  0
VERTEX
  5
6C
330
68
100
AcDbEntity
  8
LAAG_1
 62
   250
100
AcDbVertex
100
AcDb2dVertex
 10
159.9176944044652
 20
-82.64172220156188
 30
0.0
  0
SEQEND
  5
6D
330
68
100
AcDbEntity
  8
LAAG_1
 62
   250
  0
POLYLINE
  5
6E
330
49
100
AcDbEntity
  8
LAAG_1
 62
   250
100
AcDb2dPolyline
 66
     1
 10
0.0
 20
0.0
 30
0.0
  0
VERTEX
  5
6F
330
6E
100
AcDbEntity
  8
LAAG_1
 62
   250
100
AcDbVertex
100
AcDb2dVertex
 10
159.9176944044652
 20
-144.0709166306491
 30
0.0
  0
VERTEX
  5
70
330
6E
100
AcDbEntity
  8
LAAG_1
 62
   250
100
AcDbVertex
100
AcDb2dVertex
 10
84.91713886765962
 20
-144.0709166306491
 30
0.0
  0
VERTEX
  5
71
330
6E
100
AcDbEntity
  8
LAAG_1
 62
   250
100
AcDbVertex
100
AcDb2dVertex
 10
84.91713886765962
 20
-138.0701666321492
 30
0.0
  0
VERTEX
  5
72
330
6E
100
AcDbEntity
  8
LAAG_1
 62
   250
100
AcDbVertex
100
AcDb2dVertex
 10
159.9176944044652
 20
-138.0701666321492
 30
0.0
  0
SEQEND
  5
73
330
6E
100
AcDbEntity
  8
LAAG_1
 62
   250
  0
SPLINE
  5
74
330
49
100
AcDbEntity
  8
LAAG_1
 62
   250
100
AcDbSpline
210
0.0
220
0.0
230
1.0
 70
     8
 71
     3
 72
    11
 73
     7
 74
     0
 42
0.0000000001
 43
0.0000000001
 12
1.0
 22
0.0
 32
0.0
 13
1.0
 23
0.0
 33
0.0
 40
0.0
 40
0.0
 40
0.0
 40
0.0
 40
1.0
 40
1.0
 40
1.0
 40
2.0
 40
2.0
 40
2.0
 40
2.0
 10
129.917472189743
 20
-160.6408888487289
 30
0.0
 10
129.917472189743
 20
-160.6408888487289
 30
0.0
 10
154.0721666281486
 20
-160.6408888487289
 30
0.0
 10
154.0721666281486
 20
-160.6408888487289
 30
0.0
 10
157.3000832940084
 20
-160.6408888487289
 30
0.0
 10
159.9176944044652
 20
-158.0232777382722
 30
0.0
 10
159.9176944044652
 20
-154.7988888501892
 30
0.0
  0
POLYLINE
  5
75
330
49
100
AcDbEntity
  8
LAAG_1
 62
   250
100
AcDb2dPolyline
 66
     1
 10
0.0
 20
0.0
 30
0.0
  0
VERTEX
  5
76
330
75
100
AcDbEntity
  8
LAAG_1
 62
   250
100
AcDbVertex
100
AcDb2dVertex
 10
109.9149721947434
 20
-154.643666628006
 30
0.0
  0
VERTEX
  5
77
330
75
100
AcDbEntity
  8
LAAG_1
 62
   250
100
AcDbVertex
100
AcDb2dVertex
 10
109.9149721947434
 20
-154.640138850229
 30
0.0
  0
VERTEX
  5
78
330
75
100
AcDbEntity
  8
LAAG_1
 62
   250
100
AcDbVertex
100
AcDb2dVertex
 10
129.917472189743
 20
-154.640138850229
 30
0.0
  0
VERTEX
  5
79
330
75
100
AcDbEntity
  8
LAAG_1
 62
   250
100
AcDbVertex
100
AcDb2dVertex
 10
129.917472189743
 20
-154.643666628006
 30
0.0
  0
SEQEND
  5
7A
330
75
100
AcDbEntity
  8
LAAG_1
 62
   250
  0
POLYLINE
  5
7B
330
49
100
AcDbEntity
  8
LAAG_1
 62
   250
100
AcDb2dPolyline
 66
     1
 10
0.0
 20
0.0
 30
0.0
  0
VERTEX
  5
7C
330
7B
100
AcDbEntity
  8
LAAG_1
 62
   250
100
AcDbVertex
100
AcDb2dVertex
 10
59.91577776279889
 20
-160.6408888487289
 30
0.0
  0
VERTEX
  5
7D
330
7B
100
AcDbEntity
  8
LAAG_1
 62
   250
100
AcDbVertex
100
AcDb2dVertex
 10
109.9149721947434
 20
-160.6408888487289
 30
0.0
  0
SEQEND
  5
7E
330
7B
100
AcDbEntity
  8
LAAG_1
 62
   250
  0
POLYLINE
  5
7F
330
49
100
AcDbEntity
  8
LAAG_1
 62
   250
100
AcDb2dPolyline
 66
     1
 10
0.0
 20
0.0
 30
0.0
  0
VERTEX
  5
80
330
7F
100
AcDbEntity
  8
LAAG_1
 62
   250
100
AcDbVertex
100
AcDb2dVertex
 10
39.91680554557655
 20
-154.643666628006
 30
0.0
  0
VERTEX
  5
81
330
7F
100
AcDbEntity
  8
LAAG_1
 62
   250
100
AcDbVertex
100
AcDb2dVertex
 10
39.91680554557655
 20
-154.640138850229
 30
0.0
  0
VERTEX
  5
82
330
7F
100
AcDbEntity
  8
LAAG_1
 62
   250
100
AcDbVertex
100
AcDb2dVertex
 10
59.91577776279889
 20
-154.640138850229
 30
0.0
  0
VERTEX
  5
83
330
7F
100
AcDbEntity
  8
LAAG_1
 62
   250
100
AcDbVertex
100
AcDb2dVertex
 10
59.91577776279889
 20
-154.643666628006
 30
0.0
  0
SEQEND
  5
84
330
7F
100
AcDbEntity
  8
LAAG_1
 62
   250
  0
SPLINE
  5
85
330
49
100
AcDbEntity
  8
LAAG_1
 62
   250
100
AcDbSpline
210
0.0
220
0.0
230
1.0
 70
     8
 71
     3
 72
    95
 73
    91
 74
     0
 42
0.0000000001
 43
0.0000000001
 12
1.0
 22
0.0
 32
0.0
 13
1.0
 23
0.0
 33
0.0
 40
0.0
 40
0.0
 40
0.0
 40
0.0
 40
1.0
 40
1.0
 40
1.0
 40
2.0
 40
2.0
 40
2.0
 40
3.0
 40
3.0
 40
3.0
 40
4.0
 40
4.0
 40
4.0
 40
5.0
 40
5.0
 40
5.0
 40
6.0
 40
6.0
 40
6.0
 40
7.0
 40
7.0
 40
7.0
 40
8.0
 40
8.0
 40
8.0
 40
9.0
 40
9.0
 40
9.0
 40
10.0
 40
10.0
 40
10.0
 40
11.0
 40
11.0
 40
11.0
 40
12.0
 40
12.0
 40
12.0
 40
13.0
 40
13.0
 40
13.0
 40
14.0
 40
14.0
 40
14.0
 40
15.0
 40
15.0
 40
15.0
 40
16.0
 40
16.0
 40
16.0
 40
17.0
 40
17.0
 40
17.0
 40
18.0
 40
18.0
 40
18.0
 40
19.0
 40
19.0
 40
19.0
 40
20.0
 40
20.0
 40
20.0
 40
21.0
 40
21.0
 40
21.0
 40
22.0
 40
22.0
 40
22.0
 40
23.0
 40
23.0
 40
23.0
 40
24.0
 40
24.0
 40
24.0
 40
25.0
 40
25.0
 40
25.0
 40
26.0
 40
26.0
 40
26.0
 40
27.0
 40
27.0
 40
27.0
 40
28.0
 40
28.0
 40
28.0
 40
29.0
 40
29.0
 40
29.0
 40
30.0
 40
30.0
 40
30.0
 40
30.0
 10
159.9176944044652
 20
-16.48177777365742
 30
0.0
 10
159.9176944044652
 20
-13.25738888557452
 30
0.0
 10
157.3000832940084
 20
-10.63977777511778
 30
0.0
 10
154.0721666281486
 20
-10.63977777511778
 30
0.0
 10
154.0721666281486
 20
-10.63977777511778
 30
0.0
 10
129.917472189743
 20
-10.63977777511778
 30
0.0
 10
129.917472189743
 20
-10.63977777511778
 30
0.0
 10
129.917472189743
 20
-10.63977777511778
 30
0.0
 10
129.917472189743
 20
-4.639027776618214
 30
0.0
 10
129.917472189743
 20
-4.639027776618214
 30
0.0
 10
129.917472189743
 20
-4.639027776618214
 30
0.0
 10
109.9149721947434
 20
-4.639027776618214
 30
0.0
 10
109.9149721947434
 20
-4.639027776618214
 30
0.0
 10
109.9149721947434
 20
-4.639027776618214
 30
0.0
 10
109.9149721947434
 20
-10.63977777511778
 30
0.0
 10
109.9149721947434
 20
-10.63977777511778
 30
0.0
 10
109.9149721947434
 20
-10.63977777511778
 30
0.0
 10
59.91577776279889
 20
-10.63977777511778
 30
0.0
 10
59.91577776279889
 20
-10.63977777511778
 30
0.0
 10
59.91577776279889
 20
-10.63977777511778
 30
0.0
 10
59.91577776279889
 20
-4.639027776618214
 30
0.0
 10
59.91577776279889
 20
-4.639027776618214
 30
0.0
 10
59.91577776279889
 20
-4.639027776618214
 30
0.0
 10
39.91680554557655
 20
-4.639027776618214
 30
0.0
 10
39.91680554557655
 20
-4.639027776618214
 30
0.0
 10
39.91680554557655
 20
-4.639027776618214
 30
0.0
 10
39.91680554557655
 20
-10.63977777511778
 30
0.0
 10
39.91680554557655
 20
-10.63977777511778
 30
0.0
 10
39.91680554557655
 20
-10.63977777511778
 30
0.0
 10
15.75858332939371
 20
-10.63977777511778
 30
0.0
 10
15.75858332939371
 20
-10.63977777511778
 30
0.0
 10
15.26822221840508
 20
-10.63977777511778
 30
0.0
 10
14.79549999630131
 20
-10.70680555287898
 30
0.0
 10
14.34041666308176
 20
-10.82322221951652
 30
0.0
 10
14.34041666308176
 20
-10.82322221951652
 30
0.0
 10
67.19358331653503
 20
-63.67286109519282
 30
0.0
 10
67.19358331653503
 20
-63.67286109519282
 30
0.0
 10
67.19358331653503
 20
-63.67286109519282
 30
0.0
 10
62.94966665092943
 20
-67.91677776079874
 30
0.0
 10
62.94966665092943
 20
-67.91677776079874
 30
0.0
 10
62.94966665092943
 20
-67.91677776079874
 30
0.0
 10
10.09649999747584
 20
-15.06361110734514
 30
0.0
 10
10.09649999747584
 20
-15.06361110734514
 30
0.0
 10
9.983611108615273
 20
-15.51869444056469
 30
0.0
 10
9.916583330854394
 20
-15.99141666266879
 30
0.0
 10
9.916583330854394
 20
-16.48177777365742
 30
0.0
 10
9.916583330854394
 20
-16.48177777365742
 30
0.0
 10
9.916583330854394
 20
-40.63999998983994
 30
0.0
 10
9.916583330854394
 20
-40.63999998983994
 30
0.0
 10
9.916583330854394
 20
-40.63999998983994
 30
0.0
 10
3.915833332354504
 20
-40.63999998983994
 30
0.0
 10
3.915833332354504
 20
-40.63999998983994
 30
0.0
 10
3.915833332354504
 20
-40.63999998983994
 30
0.0
 10
3.915833332354504
 20
-60.6389722070626
 30
0.0
 10
3.915833332354504
 20
-60.6389722070626
 30
0.0
 10
3.915833332354504
 20
-60.6389722070626
 30
0.0
 10
9.916583330854394
 20
-60.6389722070626
 30
0.0
 10
9.916583330854394
 20
-60.6389722070626
 30
0.0
 10
9.916583330854394
 20
-60.6389722070626
 30
0.0
 10
9.916583330854394
 20
-110.6416944167841
 30
0.0
 10
9.916583330854394
 20
-110.6416944167841
 30
0.0
 10
9.916583330854394
 20
-110.6416944167841
 30
0.0
 10
3.915833332354504
 20
-110.6416944167841
 30
0.0
 10
3.915833332354504
 20
-110.6416944167841
 30
0.0
 10
3.915833332354504
 20
-110.6416944167841
 30
0.0
 10
3.915833332354504
 20
-130.6406666340067
 30
0.0
 10
3.915833332354504
 20
-130.6406666340067
 30
0.0
 10
3.915833332354504
 20
-130.6406666340067
 30
0.0
 10
9.916583330854394
 20
-130.6406666340067
 30
0.0
 10
9.916583330854394
 20
-130.6406666340067
 30
0.0
 10
9.916583330854394
 20
-130.6406666340067
 30
0.0
 10
9.916583330854394
 20
-154.7988888501892
 30
0.0
 10
9.916583330854394
 20
-154.7988888501892
 30
0.0
 10
9.916583330854394
 20
-155.3209999611697
 30
0.0
 10
9.990666664168899
 20
-155.8254721832659
 30
0.0
 10
10.12119444191433
 20
-156.3087777387006
 30
0.0
 10
10.12119444191433
 20
-156.3087777387006
 30
0.0
 10
35.9833333243375
 20
-130.4466388562774
 30
0.0
 10
35.9833333243375
 20
-130.4466388562774
 30
0.0
 10
35.9833333243375
 20
-130.4466388562774
 30
0.0
 10
40.22372221216645
 20
-134.687027744106
 30
0.0
 10
40.22372221216645
 20
-134.687027744106
 30
0.0
 10
40.22372221216645
 20
-134.687027744106
 30
0.0
 10
14.42861110750415
 20
-160.4821388487683
 30
0.0
 10
14.42861110750415
 20
-160.4821388487683
 30
0.0
 10
14.85899999628521
 20
-160.5844444042983
 30
0.0
 10
15.29997221839719
 20
-160.6408888487289
 30
0.0
 10
15.75858332939371
 20
-160.6408888487289
 30
0.0
 10
15.75858332939371
 20
-160.6408888487289
 30
0.0
 10
39.91680554557655
 20
-160.6408888487289
 30
0.0
 10
39.91680554557655
 20
-160.6408888487289
 30
0.0
  0
POLYLINE
  5
86
330
49
100
AcDbEntity
  8
LAAG_1
 62
   250
100
AcDb2dPolyline
 66
     1
 10
0.0
 20
0.0
 30
0.0
  0
VERTEX
  5
87
330
86
100
AcDbEntity
  8
LAAG_1
 62
   250
100
AcDbVertex
100
AcDb2dVertex
 10
237.9168610516319
 20
-60.6389722070626
 30
0.0
  0
VERTEX
  5
88
330
86
100
AcDbEntity
  8
LAAG_1
 62
   250
100
AcDbVertex
100
AcDb2dVertex
 10
231.9161110531323
 20
-60.6389722070626
 30
0.0
  0
VERTEX
  5
89
330
86
100
AcDbEntity
  8
LAAG_1
 62
   250
100
AcDbVertex
100
AcDb2dVertex
 10
231.9161110531323
 20
-40.63999998983994
 30
0.0
  0
VERTEX
  5
8A
330
86
100
AcDbEntity
  8
LAAG_1
 62
   250
100
AcDbVertex
100
AcDb2dVertex
 10
237.9168610516319
 20
-40.63999998983994
 30
0.0
  0
VERTEX
  5
8B
330
86
100
AcDbEntity
  8
LAAG_1
 62
   250
100
AcDbVertex
100
AcDb2dVertex
 10
237.9168610516319
 20
-60.6389722070626
 30
0.0
  0
SEQEND
  5
8C
330
86
100
AcDbEntity
  8
LAAG_1
 62
   250
  0
POLYLINE
  5
8D
330
49
100
AcDbEntity
  8
LAAG_1
 62
   250
100
AcDb2dPolyline
 66
     1
 10
0.0
 20
0.0
 30
0.0
  0
VERTEX
  5
8E
330
8D
100
AcDbEntity
  8
LAAG_1
 62
   250
100
AcDbVertex
100
AcDb2dVertex
 10
237.9168610516319
 20
-130.6406666340067
 30
0.0
  0
VERTEX
  5
8F
330
8D
100
AcDbEntity
  8
LAAG_1
 62
   250
100
AcDbVertex
100
AcDb2dVertex
 10
231.9161110531323
 20
-130.6406666340067
 30
0.0
  0
VERTEX
  5
90
330
8D
100
AcDbEntity
  8
LAAG_1
 62
   250
100
AcDbVertex
100
AcDb2dVertex
 10
231.9161110531323
 20
-110.6416944167841
 30
0.0
  0
VERTEX
  5
91
330
8D
100
AcDbEntity
  8
LAAG_1
 62
   250
100
AcDbVertex
100
AcDb2dVertex
 10
237.9168610516319
 20
-110.6416944167841
 30
0.0
  0
VERTEX
  5
92
330
8D
100
AcDbEntity
  8
LAAG_1
 62
   250
100
AcDbVertex
100
AcDb2dVertex
 10
237.9168610516319
 20
-130.6406666340067
 30
0.0
  0
SEQEND
  5
93
330
8D
100
AcDbEntity
  8
LAAG_1
 62
   250
  0
POLYLINE
  5
94
330
49
100
AcDbEntity
  8
LAAG_1
 62
   250
100
AcDb2dPolyline
 66
     1
 10
0.0
 20
0.0
 30
0.0
  0
VERTEX
  5
95
330
94
100
AcDbEntity
  8
LAAG_1
 62
   250
100
AcDbVertex
100
AcDb2dVertex
 10
189.9179166191873
 20
-88.64247220006176
 30
0.0
  0
VERTEX
  5
96
330
94
100
AcDbEntity
  8
LAAG_1
 62
   250
100
AcDbVertex
100
AcDb2dVertex
 10
189.9179166191873
 20
-82.64172220156188
 30
0.0
  0
VERTEX
  5
97
330
94
100
AcDbEntity
  8
LAAG_1
 62
   250
100
AcDbVertex
100
AcDb2dVertex
 10
209.9168888364097
 20
-82.64172220156188
 30
0.0
  0
VERTEX
  5
98
330
94
100
AcDbEntity
  8
LAAG_1
 62
   250
100
AcDbVertex
100
AcDb2dVertex
 10
209.9168888364097
 20
-88.64247220006176
 30
0.0
  0
VERTEX
  5
99
330
94
100
AcDbEntity
  8
LAAG_1
 62
   250
100
AcDbVertex
100
AcDb2dVertex
 10
189.9179166191873
 20
-88.64247220006176
 30
0.0
  0
SEQEND
  5
9A
330
94
100
AcDbEntity
  8
LAAG_1
 62
   250
  0
POLYLINE
  5
9B
330
49
100
AcDbEntity
  8
LAAG_1
 62
   250
100
AcDb2dPolyline
 66
     1
 10
0.0
 20
0.0
 30
0.0
  0
VERTEX
  5
9C
330
9B
100
AcDbEntity
  8
LAAG_1
 62
   250
100
AcDbVertex
100
AcDb2dVertex
 10
309.915277700299
 20
-33.21049999169749
 30
0.0
  0
VERTEX
  5
9D
330
9B
100
AcDbEntity
  8
LAAG_1
 62
   250
100
AcDbVertex
100
AcDb2dVertex
 10
234.9147221634937
 20
-33.21049999169749
 30
0.0
  0
VERTEX
  5
9E
330
9B
100
AcDbEntity
  8
LAAG_1
 62
   250
100
AcDbVertex
100
AcDb2dVertex
 10
234.9147221634937
 20
-27.2097499931976
 30
0.0
  0
VERTEX
  5
9F
330
9B
100
AcDbEntity
  8
LAAG_1
 62
   250
100
AcDbVertex
100
AcDb2dVertex
 10
309.915277700299
 20
-27.2097499931976
 30
0.0
  0
SEQEND
  5
A0
330
9B
100
AcDbEntity
  8
LAAG_1
 62
   250
  0
POLYLINE
  5
A1
330
49
100
AcDbEntity
  8
LAAG_1
 62
   250
100
AcDb2dPolyline
 66
     1
 10
0.0
 20
0.0
 30
0.0
  0
VERTEX
  5
A2
330
A1
100
AcDbEntity
  8
LAAG_1
 62
   250
100
AcDbVertex
100
AcDb2dVertex
 10
309.915277700299
 20
-88.64247220006176
 30
0.0
  0
VERTEX
  5
A3
330
A1
100
AcDbEntity
  8
LAAG_1
 62
   250
100
AcDbVertex
100
AcDb2dVertex
 10
234.9147221634937
 20
-88.64247220006176
 30
0.0
  0
VERTEX
  5
A4
330
A1
100
AcDbEntity
  8
LAAG_1
 62
   250
100
AcDbVertex
100
AcDb2dVertex
 10
234.9147221634937
 20
-82.64172220156188
 30
0.0
  0
VERTEX
  5
A5
330
A1
100
AcDbEntity
  8
LAAG_1
 62
   250
100
AcDbVertex
100
AcDb2dVertex
 10
309.915277700299
 20
-82.64172220156188
 30
0.0
  0
SEQEND
  5
A6
330
A1
100
AcDbEntity
  8
LAAG_1
 62
   250
  0
POLYLINE
  5
A7
330
49
100
AcDbEntity
  8
LAAG_1
 62
   250
100
AcDb2dPolyline
 66
     1
 10
0.0
 20
0.0
 30
0.0
  0
VERTEX
  5
A8
330
A7
100
AcDbEntity
  8
LAAG_1
 62
   250
100
AcDbVertex
100
AcDb2dVertex
 10
309.915277700299
 20
-144.0709166306491
 30
0.0
  0
VERTEX
  5
A9
330
A7
100
AcDbEntity
  8
LAAG_1
 62
   250
100
AcDbVertex
100
AcDb2dVertex
 10
234.9147221634937
 20
-144.0709166306491
 30
0.0
  0
VERTEX
  5
AA
330
A7
100
AcDbEntity
  8
LAAG_1
 62
   250
100
AcDbVertex
100
AcDb2dVertex
 10
234.9147221634937
 20
-138.0701666321492
 30
0.0
  0
VERTEX
  5
AB
330
A7
100
AcDbEntity
  8
LAAG_1
 62
   250
100
AcDbVertex
100
AcDb2dVertex
 10
309.915277700299
 20
-138.0701666321492
 30
0.0
  0
SEQEND
  5
AC
330
A7
100
AcDbEntity
  8
LAAG_1
 62
   250
  0
SPLINE
  5
AD
330
49
100
AcDbEntity
  8
LAAG_1
 62
   250
100
AcDbSpline
210
0.0
220
0.0
230
1.0
 70
     8
 71
     3
 72
    11
 73
     7
 74
     0
 42
0.0000000001
 43
0.0000000001
 12
1.0
 22
0.0
 32
0.0
 13
1.0
 23
0.0
 33
0.0
 40
0.0
 40
0.0
 40
0.0
 40
0.0
 40
1.0
 40
1.0
 40
1.0
 40
2.0
 40
2.0
 40
2.0
 40
2.0
 10
279.9150554855768
 20
-160.6408888487289
 30
0.0
 10
279.9150554855768
 20
-160.6408888487289
 30
0.0
 10
304.0732777017597
 20
-160.6408888487289
 30
0.0
 10
304.0732777017597
 20
-160.6408888487289
 30
0.0
 10
307.3011943676192
 20
-160.6408888487289
 30
0.0
 10
309.915277700299
 20
-158.0232777382722
 30
0.0
 10
309.915277700299
 20
-154.7988888501892
 30
0.0
  0
POLYLINE
  5
AE
330
49
100
AcDbEntity
  8
LAAG_1
 62
   250
100
AcDb2dPolyline
 66
     1
 10
0.0
 20
0.0
 30
0.0
  0
VERTEX
  5
AF
330
AE
100
AcDbEntity
  8
LAAG_1
 62
   250
100
AcDbVertex
100
AcDb2dVertex
 10
259.9160832683545
 20
-154.643666628006
 30
0.0
  0
VERTEX
  5
B0
330
AE
100
AcDbEntity
  8
LAAG_1
 62
   250
100
AcDbVertex
100
AcDb2dVertex
 10
259.9160832683545
 20
-154.640138850229
 30
0.0
  0
VERTEX
  5
B1
330
AE
100
AcDbEntity
  8
LAAG_1
 62
   250
100
AcDbVertex
100
AcDb2dVertex
 10
279.9150554855768
 20
-154.640138850229
 30
0.0
  0
VERTEX
  5
B2
330
AE
100
AcDbEntity
  8
LAAG_1
 62
   250
100
AcDbVertex
100
AcDb2dVertex
 10
279.9150554855768
 20
-154.643666628006
 30
0.0
  0
SEQEND
  5
B3
330
AE
100
AcDbEntity
  8
LAAG_1
 62
   250
  0
POLYLINE
  5
B4
330
49
100
AcDbEntity
  8
LAAG_1
 62
   250
100
AcDb2dPolyline
 66
     1
 10
0.0
 20
0.0
 30
0.0
  0
VERTEX
  5
B5
330
B4
100
AcDbEntity
  8
LAAG_1
 62
   250
100
AcDbVertex
100
AcDb2dVertex
 10
209.9168888364097
 20
-160.6408888487289
 30
0.0
  0
VERTEX
  5
B6
330
B4
100
AcDbEntity
  8
LAAG_1
 62
   250
100
AcDbVertex
100
AcDb2dVertex
 10
259.9160832683545
 20
-160.6408888487289
 30
0.0
  0
SEQEND
  5
B7
330
B4
100
AcDbEntity
  8
LAAG_1
 62
   250
  0
POLYLINE
  5
B8
330
49
100
AcDbEntity
  8
LAAG_1
 62
   250
100
AcDb2dPolyline
 66
     1
 10
0.0
 20
0.0
 30
0.0
  0
VERTEX
  5
B9
330
B8
100
AcDbEntity
  8
LAAG_1
 62
   250
100
AcDbVertex
100
AcDb2dVertex
 10
189.9179166191873
 20
-154.643666628006
 30
0.0
  0
VERTEX
  5
BA
330
B8
100
AcDbEntity
  8
LAAG_1
 62
   250
100
AcDbVertex
100
AcDb2dVertex
 10
189.9179166191873
 20
-154.640138850229
 30
0.0
  0
VERTEX
  5
BB
330
B8
100
AcDbEntity
  8
LAAG_1
 62
   250
100
AcDbVertex
100
AcDb2dVertex
 10
209.9168888364097
 20
-154.640138850229
 30
0.0
  0
VERTEX
  5
BC
330
B8
100
AcDbEntity
  8
LAAG_1
 62
   250
100
AcDbVertex
100
AcDb2dVertex
 10
209.9168888364097
 20
-154.643666628006
 30
0.0
  0
SEQEND
  5
BD
330
B8
100
AcDbEntity
  8
LAAG_1
 62
   250
  0
SPLINE
  5
BE
330
49
100
AcDbEntity
  8
LAAG_1
 62
   250
100
AcDbSpline
210
0.0
220
0.0
230
1.0
 70
     8
 71
     3
 72
   113
 73
   109
 74
     0
 42
0.0000000001
 43
0.0000000001
 12
1.0
 22
0.0
 32
0.0
 13
1.0
 23
0.0
 33
0.0
 40
0.0
 40
0.0
 40
0.0
 40
0.0
 40
1.0
 40
1.0
 40
1.0
 40
2.0
 40
2.0
 40
2.0
 40
3.0
 40
3.0
 40
3.0
 40
4.0
 40
4.0
 40
4.0
 40
5.0
 40
5.0
 40
5.0
 40
6.0
 40
6.0
 40
6.0
 40
7.0
 40
7.0
 40
7.0
 40
8.0
 40
8.0
 40
8.0
 40
9.0
 40
9.0
 40
9.0
 40
10.0
 40
10.0
 40
10.0
 40
11.0
 40
11.0
 40
11.0
 40
12.0
 40
12.0
 40
12.0
 40
13.0
 40
13.0
 40
13.0
 40
14.0
 40
14.0
 40
14.0
 40
15.0
 40
15.0
 40
15.0
 40
16.0
 40
16.0
 40
16.0
 40
17.0
 40
17.0
 40
17.0
 40
18.0
 40
18.0
 40
18.0
 40
19.0
 40
19.0
 40
19.0
 40
20.0
 40
20.0
 40
20.0
 40
21.0
 40
21.0
 40
21.0
 40
22.0
 40
22.0
 40
22.0
 40
23.0
 40
23.0
 40
23.0
 40
24.0
 40
24.0
 40
24.0
 40
25.0
 40
25.0
 40
25.0
 40
26.0
 40
26.0
 40
26.0
 40
27.0
 40
27.0
 40
27.0
 40
28.0
 40
28.0
 40
28.0
 40
29.0
 40
29.0
 40
29.0
 40
30.0
 40
30.0
 40
30.0
 40
31.0
 40
31.0
 40
31.0
 40
32.0
 40
32.0
 40
32.0
 40
33.0
 40
33.0
 40
33.0
 40
34.0
 40
34.0
 40
34.0
 40
35.0
 40
35.0
 40
35.0
 40
36.0
 40
36.0
 40
36.0
 40
36.0
 10
309.915277700299
 20
-16.48177777365742
 30
0.0
 10
309.915277700299
 20
-13.25738888557452
 30
0.0
 10
307.3011943676192
 20
-10.63977777511778
 30
0.0
 10
304.0732777017597
 20
-10.63977777511778
 30
0.0
 10
304.0732777017597
 20
-10.63977777511778
 30
0.0
 10
279.9150554855768
 20
-10.63977777511778
 30
0.0
 10
279.9150554855768
 20
-10.63977777511778
 30
0.0
 10
279.9150554855768
 20
-10.63977777511778
 30
0.0
 10
279.9150554855768
 20
-4.639027776618214
 30
0.0
 10
279.9150554855768
 20
-4.639027776618214
 30
0.0
 10
279.9150554855768
 20
-4.639027776618214
 30
0.0
 10
259.9160832683545
 20
-4.639027776618214
 30
0.0
 10
259.9160832683545
 20
-4.639027776618214
 30
0.0
 10
259.9160832683545
 20
-4.639027776618214
 30
0.0
 10
259.9160832683545
 20
-10.63977777511778
 30
0.0
 10
259.9160832683545
 20
-10.63977777511778
 30
0.0
 10
259.9160832683545
 20
-10.63977777511778
 30
0.0
 10
209.9168888364097
 20
-10.63977777511778
 30
0.0
 10
209.9168888364097
 20
-10.63977777511778
 30
0.0
 10
209.9168888364097
 20
-10.63977777511778
 30
0.0
 10
209.9168888364097
 20
-4.639027776618214
 30
0.0
 10
209.9168888364097
 20
-4.639027776618214
 30
0.0
 10
209.9168888364097
 20
-4.639027776618214
 30
0.0
 10
189.9179166191873
 20
-4.639027776618214
 30
0.0
 10
189.9179166191873
 20
-4.639027776618214
 30
0.0
 10
189.9179166191873
 20
-4.639027776618214
 30
0.0
 10
189.9179166191873
 20
-10.63977777511778
 30
0.0
 10
189.9179166191873
 20
-10.63977777511778
 30
0.0
 10
189.9179166191873
 20
-10.63977777511778
 30
0.0
 10
165.7596944030045
 20
-10.63977777511778
 30
0.0
 10
165.7596944030045
 20
-10.63977777511778
 30
0.0
 10
165.2693332920162
 20
-10.63977777511778
 30
0.0
 10
164.7966110699121
 20
-10.70680555287898
 30
0.0
 10
164.3415277366925
 20
-10.82322221951652
 30
0.0
 10
164.3415277366925
 20
-10.82322221951652
 30
0.0
 10
217.1911666123688
 20
-63.67286109519282
 30
0.0
 10
217.1911666123688
 20
-63.67286109519282
 30
0.0
 10
217.1911666123688
 20
-63.67286109519282
 30
0.0
 10
212.9507777245402
 20
-67.91677776079874
 30
0.0
 10
212.9507777245402
 20
-67.91677776079874
 30
0.0
 10
212.9507777245402
 20
-67.91677776079874
 30
0.0
 10
160.0976110710866
 20
-15.06361110734514
 30
0.0
 10
160.0976110710866
 20
-15.06361110734514
 30
0.0
 10
159.9847221822261
 20
-15.51869444056469
 30
0.0
 10
159.9176944044652
 20
-15.99141666266879
 30
0.0
 10
159.9176944044652
 20
-16.48177777365742
 30
0.0
 10
159.9176944044652
 20
-16.48177777365742
 30
0.0
 10
159.9176944044652
 20
-27.2097499931976
 30
0.0
 10
159.9176944044652
 20
-27.2097499931976
 30
0.0
 10
159.9176944044652
 20
-27.2097499931976
 30
0.0
 10
159.9176944044652
 20
-33.21049999169749
 30
0.0
 10
159.9176944044652
 20
-33.21049999169749
 30
0.0
 10
159.9176944044652
 20
-33.21049999169749
 30
0.0
 10
159.9176944044652
 20
-40.63999998983994
 30
0.0
 10
159.9176944044652
 20
-40.63999998983994
 30
0.0
 10
159.9176944044652
 20
-40.63999998983994
 30
0.0
 10
153.9169444059653
 20
-40.63999998983994
 30
0.0
 10
153.9169444059653
 20
-40.63999998983994
 30
0.0
 10
153.9169444059653
 20
-40.63999998983994
 30
0.0
 10
153.9169444059653
 20
-60.6389722070626
 30
0.0
 10
153.9169444059653
 20
-60.6389722070626
 30
0.0
 10
153.9169444059653
 20
-60.6389722070626
 30
0.0
 10
159.9176944044652
 20
-60.6389722070626
 30
0.0
 10
159.9176944044652
 20
-60.6389722070626
 30
0.0
 10
159.9176944044652
 20
-60.6389722070626
 30
0.0
 10
159.9176944044652
 20
-82.64172220156188
 30
0.0
 10
159.9176944044652
 20
-82.64172220156188
 30
0.0
 10
159.9176944044652
 20
-82.64172220156188
 30
0.0
 10
159.9176944044652
 20
-88.64247220006176
 30
0.0
 10
159.9176944044652
 20
-88.64247220006176
 30
0.0
 10
159.9176944044652
 20
-88.64247220006176
 30
0.0
 10
159.9176944044652
 20
-110.6416944167841
 30
0.0
 10
159.9176944044652
 20
-110.6416944167841
 30
0.0
 10
159.9176944044652
 20
-110.6416944167841
 30
0.0
 10
153.9169444059653
 20
-110.6416944167841
 30
0.0
 10
153.9169444059653
 20
-110.6416944167841
 30
0.0
 10
153.9169444059653
 20
-110.6416944167841
 30
0.0
 10
153.9169444059653
 20
-130.6406666340067
 30
0.0
 10
153.9169444059653
 20
-130.6406666340067
 30
0.0
 10
153.9169444059653
 20
-130.6406666340067
 30
0.0
 10
159.9176944044652
 20
-130.6406666340067
 30
0.0
 10
159.9176944044652
 20
-130.6406666340067
 30
0.0
 10
159.9176944044652
 20
-130.6406666340067
 30
0.0
 10
159.9176944044652
 20
-138.0701666321492
 30
0.0
 10
159.9176944044652
 20
-138.0701666321492
 30
0.0
 10
159.9176944044652
 20
-138.0701666321492
 30
0.0
 10
159.9176944044652
 20
-144.0709166306491
 30
0.0
 10
159.9176944044652
 20
-144.0709166306491
 30
0.0
 10
159.9176944044652
 20
-144.0709166306491
 30
0.0
 10
159.9176944044652
 20
-154.7988888501892
 30
0.0
 10
159.9176944044652
 20
-154.7988888501892
 30
0.0
 10
159.9176944044652
 20
-155.3209999611697
 30
0.0
 10
159.99177773778
 20
-155.8254721832659
 30
0.0
 10
160.1187777377481
 20
-156.3087777387006
 30
0.0
 10
160.1187777377481
 20
-156.3087777387006
 30
0.0
 10
185.9844443979483
 20
-130.4466388562774
 30
0.0
 10
185.9844443979483
 20
-130.4466388562774
 30
0.0
 10
185.9844443979483
 20
-130.4466388562774
 30
0.0
 10
190.2248332857772
 20
-134.687027744106
 30
0.0
 10
190.2248332857772
 20
-134.687027744106
 30
0.0
 10
190.2248332857772
 20
-134.687027744106
 30
0.0
 10
164.4297221811149
 20
-160.4821388487683
 30
0.0
 10
164.4297221811149
 20
-160.4821388487683
 30
0.0
 10
164.8565832921193
 20
-160.5844444042983
 30
0.0
 10
165.301083292008
 20
-160.6408888487289
 30
0.0
 10
165.7596944030045
 20
-160.6408888487289
 30
0.0
 10
165.7596944030045
 20
-160.6408888487289
 30
0.0
 10
189.9179166191873
 20
-160.6408888487289
 30
0.0
 10
189.9179166191873
 20
-160.6408888487289
 30
0.0
  0
POLYLINE
  5
BF
330
49
100
AcDbEntity
  8
LAAG_1
 62
   250
100
AcDb2dPolyline
 66
     1
 10
0.0
 20
0.0
 30
0.0
  0
VERTEX
  5
C0
330
BF
100
AcDbEntity
  8
LAAG_1
 62
   250
100
AcDbVertex
100
AcDb2dVertex
 10
387.917972125243
 20
-60.6389722070626
 30
0.0
  0
VERTEX
  5
C1
330
BF
100
AcDbEntity
  8
LAAG_1
 62
   250
100
AcDbVertex
100
AcDb2dVertex
 10
381.9172221267431
 20
-60.6389722070626
 30
0.0
  0
VERTEX
  5
C2
330
BF
100
AcDbEntity
  8
LAAG_1
 62
   250
100
AcDbVertex
100
AcDb2dVertex
 10
381.9172221267431
 20
-40.63999998983994
 30
0.0
  0
VERTEX
  5
C3
330
BF
100
AcDbEntity
  8
LAAG_1
 62
   250
100
AcDbVertex
100
AcDb2dVertex
 10
387.917972125243
 20
-40.63999998983994
 30
0.0
  0
VERTEX
  5
C4
330
BF
100
AcDbEntity
  8
LAAG_1
 62
   250
100
AcDbVertex
100
AcDb2dVertex
 10
387.917972125243
 20
-60.6389722070626
 30
0.0
  0
SEQEND
  5
C5
330
BF
100
AcDbEntity
  8
LAAG_1
 62
   250
  0
POLYLINE
  5
C6
330
49
100
AcDbEntity
  8
LAAG_1
 62
   250
100
AcDb2dPolyline
 66
     1
 10
0.0
 20
0.0
 30
0.0
  0
VERTEX
  5
C7
330
C6
100
AcDbEntity
  8
LAAG_1
 62
   250
100
AcDbVertex
100
AcDb2dVertex
 10
387.917972125243
 20
-130.6406666340067
 30
0.0
  0
VERTEX
  5
C8
330
C6
100
AcDbEntity
  8
LAAG_1
 62
   250
100
AcDbVertex
100
AcDb2dVertex
 10
381.9172221267431
 20
-130.6406666340067
 30
0.0
  0
VERTEX
  5
C9
330
C6
100
AcDbEntity
  8
LAAG_1
 62
   250
100
AcDbVertex
100
AcDb2dVertex
 10
381.9172221267431
 20
-110.6416944167841
 30
0.0
  0
VERTEX
  5
CA
330
C6
100
AcDbEntity
  8
LAAG_1
 62
   250
100
AcDbVertex
100
AcDb2dVertex
 10
387.917972125243
 20
-110.6416944167841
 30
0.0
  0
VERTEX
  5
CB
330
C6
100
AcDbEntity
  8
LAAG_1
 62
   250
100
AcDbVertex
100
AcDb2dVertex
 10
387.917972125243
 20
-130.6406666340067
 30
0.0
  0
SEQEND
  5
CC
330
C6
100
AcDbEntity
  8
LAAG_1
 62
   250
  0
POLYLINE
  5
CD
330
49
100
AcDbEntity
  8
LAAG_1
 62
   250
100
AcDb2dPolyline
 66
     1
 10
0.0
 20
0.0
 30
0.0
  0
VERTEX
  5
CE
330
CD
100
AcDbEntity
  8
LAAG_1
 62
   250
100
AcDbVertex
100
AcDb2dVertex
 10
339.9154999150211
 20
-88.64247220006176
 30
0.0
  0
VERTEX
  5
CF
330
CD
100
AcDbEntity
  8
LAAG_1
 62
   250
100
AcDbVertex
100
AcDb2dVertex
 10
339.9154999150211
 20
-82.64172220156188
 30
0.0
  0
VERTEX
  5
D0
330
CD
100
AcDbEntity
  8
LAAG_1
 62
   250
100
AcDbVertex
100
AcDb2dVertex
 10
359.9179999100205
 20
-82.64172220156188
 30
0.0
  0
VERTEX
  5
D1
330
CD
100
AcDbEntity
  8
LAAG_1
 62
   250
100
AcDbVertex
100
AcDb2dVertex
 10
359.9179999100205
 20
-88.64247220006176
 30
0.0
  0
VERTEX
  5
D2
330
CD
100
AcDbEntity
  8
LAAG_1
 62
   250
100
AcDbVertex
100
AcDb2dVertex
 10
339.9154999150211
 20
-88.64247220006176
 30
0.0
  0
SEQEND
  5
D3
330
CD
100
AcDbEntity
  8
LAAG_1
 62
   250
  0
POLYLINE
  5
D4
330
49
100
AcDbEntity
  8
LAAG_1
 62
   250
100
AcDb2dPolyline
 66
     1
 10
0.0
 20
0.0
 30
0.0
  0
VERTEX
  5
D5
330
D4
100
AcDbEntity
  8
LAAG_1
 62
   250
100
AcDbVertex
100
AcDb2dVertex
 10
459.9163887739101
 20
-33.21049999169749
 30
0.0
  0
VERTEX
  5
D6
330
D4
100
AcDbEntity
  8
LAAG_1
 62
   250
100
AcDbVertex
100
AcDb2dVertex
 10
384.9158332371045
 20
-33.21049999169749
 30
0.0
  0
VERTEX
  5
D7
330
D4
100
AcDbEntity
  8
LAAG_1
 62
   250
100
AcDbVertex
100
AcDb2dVertex
 10
384.9158332371045
 20
-27.2097499931976
 30
0.0
  0
VERTEX
  5
D8
330
D4
100
AcDbEntity
  8
LAAG_1
 62
   250
100
AcDbVertex
100
AcDb2dVertex
 10
459.9163887739101
 20
-27.2097499931976
 30
0.0
  0
SEQEND
  5
D9
330
D4
100
AcDbEntity
  8
LAAG_1
 62
   250
  0
POLYLINE
  5
DA
330
49
100
AcDbEntity
  8
LAAG_1
 62
   250
100
AcDb2dPolyline
 66
     1
 10
0.0
 20
0.0
 30
0.0
  0
VERTEX
  5
DB
330
DA
100
AcDbEntity
  8
LAAG_1
 62
   250
100
AcDbVertex
100
AcDb2dVertex
 10
459.9163887739101
 20
-88.64247220006176
 30
0.0
  0
VERTEX
  5
DC
330
DA
100
AcDbEntity
  8
LAAG_1
 62
   250
100
AcDbVertex
100
AcDb2dVertex
 10
384.9158332371045
 20
-88.64247220006176
 30
0.0
  0
VERTEX
  5
DD
330
DA
100
AcDbEntity
  8
LAAG_1
 62
   250
100
AcDbVertex
100
AcDb2dVertex
 10
384.9158332371045
 20
-82.64172220156188
 30
0.0
  0
VERTEX
  5
DE
330
DA
100
AcDbEntity
  8
LAAG_1
 62
   250
100
AcDbVertex
100
AcDb2dVertex
 10
459.9163887739101
 20
-82.64172220156188
 30
0.0
  0
SEQEND
  5
DF
330
DA
100
AcDbEntity
  8
LAAG_1
 62
   250
  0
POLYLINE
  5
E0
330
49
100
AcDbEntity
  8
LAAG_1
 62
   250
100
AcDb2dPolyline
 66
     1
 10
0.0
 20
0.0
 30
0.0
  0
VERTEX
  5
E1
330
E0
100
AcDbEntity
  8
LAAG_1
 62
   250
100
AcDbVertex
100
AcDb2dVertex
 10
459.9163887739101
 20
-144.0709166306491
 30
0.0
  0
VERTEX
  5
E2
330
E0
100
AcDbEntity
  8
LAAG_1
 62
   250
100
AcDbVertex
100
AcDb2dVertex
 10
384.9158332371045
 20
-144.0709166306491
 30
0.0
  0
VERTEX
  5
E3
330
E0
100
AcDbEntity
  8
LAAG_1
 62
   250
100
AcDbVertex
100
AcDb2dVertex
 10
384.9158332371045
 20
-138.0701666321492
 30
0.0
  0
VERTEX
  5
E4
330
E0
100
AcDbEntity
  8
LAAG_1
 62
   250
100
AcDbVertex
100
AcDb2dVertex
 10
459.9163887739101
 20
-138.0701666321492
 30
0.0
  0
SEQEND
  5
E5
330
E0
100
AcDbEntity
  8
LAAG_1
 62
   250
  0
SPLINE
  5
E6
330
49
100
AcDbEntity
  8
LAAG_1
 62
   250
100
AcDbSpline
210
0.0
220
0.0
230
1.0
 70
     8
 71
     3
 72
    11
 73
     7
 74
     0
 42
0.0000000001
 43
0.0000000001
 12
1.0
 22
0.0
 32
0.0
 13
1.0
 23
0.0
 33
0.0
 40
0.0
 40
0.0
 40
0.0
 40
0.0
 40
1.0
 40
1.0
 40
1.0
 40
2.0
 40
2.0
 40
2.0
 40
2.0
 10
429.9161665591876
 20
-160.6408888487289
 30
0.0
 10
429.9161665591876
 20
-160.6408888487289
 30
0.0
 10
454.0743887753701
 20
-160.6408888487289
 30
0.0
 10
454.0743887753701
 20
-160.6408888487289
 30
0.0
 10
457.2987776634533
 20
-160.6408888487289
 30
0.0
 10
459.9163887739101
 20
-158.0232777382722
 30
0.0
 10
459.9163887739101
 20
-154.7988888501892
 30
0.0
  0
POLYLINE
  5
E7
330
49
100
AcDbEntity
  8
LAAG_1
 62
   250
100
AcDb2dPolyline
 66
     1
 10
0.0
 20
0.0
 30
0.0
  0
VERTEX
  5
E8
330
E7
100
AcDbEntity
  8
LAAG_1
 62
   250
100
AcDbVertex
100
AcDb2dVertex
 10
409.9171943419649
 20
-154.643666628006
 30
0.0
  0
VERTEX
  5
E9
330
E7
100
AcDbEntity
  8
LAAG_1
 62
   250
100
AcDbVertex
100
AcDb2dVertex
 10
409.9171943419649
 20
-154.640138850229
 30
0.0
  0
VERTEX
  5
EA
330
E7
100
AcDbEntity
  8
LAAG_1
 62
   250
100
AcDbVertex
100
AcDb2dVertex
 10
429.9161665591876
 20
-154.640138850229
 30
0.0
  0
VERTEX
  5
EB
330
E7
100
AcDbEntity
  8
LAAG_1
 62
   250
100
AcDbVertex
100
AcDb2dVertex
 10
429.9161665591876
 20
-154.643666628006
 30
0.0
  0
SEQEND
  5
EC
330
E7
100
AcDbEntity
  8
LAAG_1
 62
   250
  0
POLYLINE
  5
ED
330
49
100
AcDbEntity
  8
LAAG_1
 62
   250
100
AcDb2dPolyline
 66
     1
 10
0.0
 20
0.0
 30
0.0
  0
VERTEX
  5
EE
330
ED
100
AcDbEntity
  8
LAAG_1
 62
   250
100
AcDbVertex
100
AcDb2dVertex
 10
359.9179999100205
 20
-160.6408888487289
 30
0.0
  0
VERTEX
  5
EF
330
ED
100
AcDbEntity
  8
LAAG_1
 62
   250
100
AcDbVertex
100
AcDb2dVertex
 10
409.9171943419649
 20
-160.6408888487289
 30
0.0
  0
SEQEND
  5
F0
330
ED
100
AcDbEntity
  8
LAAG_1
 62
   250
  0
POLYLINE
  5
F1
330
49
100
AcDbEntity
  8
LAAG_1
 62
   250
100
AcDb2dPolyline
 66
     1
 10
0.0
 20
0.0
 30
0.0
  0
VERTEX
  5
F2
330
F1
100
AcDbEntity
  8
LAAG_1
 62
   250
100
AcDbVertex
100
AcDb2dVertex
 10
339.9154999150211
 20
-154.643666628006
 30
0.0
  0
VERTEX
  5
F3
330
F1
100
AcDbEntity
  8
LAAG_1
 62
   250
100
AcDbVertex
100
AcDb2dVertex
 10
339.9154999150211
 20
-154.640138850229
 30
0.0
  0
VERTEX
  5
F4
330
F1
100
AcDbEntity
  8
LAAG_1
 62
   250
100
AcDbVertex
100
AcDb2dVertex
 10
359.9179999100205
 20
-154.640138850229
 30
0.0
  0
VERTEX
  5
F5
330
F1
100
AcDbEntity
  8
LAAG_1
 62
   250
100
AcDbVertex
100
AcDb2dVertex
 10
359.9179999100205
 20
-154.643666628006
 30
0.0
  0
SEQEND
  5
F6
330
F1
100
AcDbEntity
  8
LAAG_1
 62
   250
  0
SPLINE
  5
F7
330
49
100
AcDbEntity
  8
LAAG_1
 62
   250
100
AcDbSpline
210
0.0
220
0.0
230
1.0
 70
     8
 71
     3
 72
   113
 73
   109
 74
     0
 42
0.0000000001
 43
0.0000000001
 12
1.0
 22
0.0
 32
0.0
 13
1.0
 23
0.0
 33
0.0
 40
0.0
 40
0.0
 40
0.0
 40
0.0
 40
1.0
 40
1.0
 40
1.0
 40
2.0
 40
2.0
 40
2.0
 40
3.0
 40
3.0
 40
3.0
 40
4.0
 40
4.0
 40
4.0
 40
5.0
 40
5.0
 40
5.0
 40
6.0
 40
6.0
 40
6.0
 40
7.0
 40
7.0
 40
7.0
 40
8.0
 40
8.0
 40
8.0
 40
9.0
 40
9.0
 40
9.0
 40
10.0
 40
10.0
 40
10.0
 40
11.0
 40
11.0
 40
11.0
 40
12.0
 40
12.0
 40
12.0
 40
13.0
 40
13.0
 40
13.0
 40
14.0
 40
14.0
 40
14.0
 40
15.0
 40
15.0
 40
15.0
 40
16.0
 40
16.0
 40
16.0
 40
17.0
 40
17.0
 40
17.0
 40
18.0
 40
18.0
 40
18.0
 40
19.0
 40
19.0
 40
19.0
 40
20.0
 40
20.0
 40
20.0
 40
21.0
 40
21.0
 40
21.0
 40
22.0
 40
22.0
 40
22.0
 40
23.0
 40
23.0
 40
23.0
 40
24.0
 40
24.0
 40
24.0
 40
25.0
 40
25.0
 40
25.0
 40
26.0
 40
26.0
 40
26.0
 40
27.0
 40
27.0
 40
27.0
 40
28.0
 40
28.0
 40
28.0
 40
29.0
 40
29.0
 40
29.0
 40
30.0
 40
30.0
 40
30.0
 40
31.0
 40
31.0
 40
31.0
 40
32.0
 40
32.0
 40
32.0
 40
33.0
 40
33.0
 40
33.0
 40
34.0
 40
34.0
 40
34.0
 40
35.0
 40
35.0
 40
35.0
 40
36.0
 40
36.0
 40
36.0
 40
36.0
 10
459.9163887739101
 20
-16.48177777365742
 30
0.0
 10
459.9163887739101
 20
-13.25738888557452
 30
0.0
 10
457.2987776634533
 20
-10.63977777511778
 30
0.0
 10
454.0743887753701
 20
-10.63977777511778
 30
0.0
 10
454.0743887753701
 20
-10.63977777511778
 30
0.0
 10
429.9161665591876
 20
-10.63977777511778
 30
0.0
 10
429.9161665591876
 20
-10.63977777511778
 30
0.0
 10
429.9161665591876
 20
-10.63977777511778
 30
0.0
 10
429.9161665591876
 20
-4.639027776618214
 30
0.0
 10
429.9161665591876
 20
-4.639027776618214
 30
0.0
 10
429.9161665591876
 20
-4.639027776618214
 30
0.0
 10
409.9171943419649
 20
-4.639027776618214
 30
0.0
 10
409.9171943419649
 20
-4.639027776618214
 30
0.0
 10
409.9171943419649
 20
-4.639027776618214
 30
0.0
 10
409.9171943419649
 20
-10.63977777511778
 30
0.0
 10
409.9171943419649
 20
-10.63977777511778
 30
0.0
 10
409.9171943419649
 20
-10.63977777511778
 30
0.0
 10
359.9179999100205
 20
-10.63977777511778
 30
0.0
 10
359.9179999100205
 20
-10.63977777511778
 30
0.0
 10
359.9179999100205
 20
-10.63977777511778
 30
0.0
 10
359.9179999100205
 20
-4.639027776618214
 30
0.0
 10
359.9179999100205
 20
-4.639027776618214
 30
0.0
 10
359.9179999100205
 20
-4.639027776618214
 30
0.0
 10
339.9154999150211
 20
-4.639027776618214
 30
0.0
 10
339.9154999150211
 20
-4.639027776618214
 30
0.0
 10
339.9154999150211
 20
-4.639027776618214
 30
0.0
 10
339.9154999150211
 20
-10.63977777511778
 30
0.0
 10
339.9154999150211
 20
-10.63977777511778
 30
0.0
 10
339.9154999150211
 20
-10.63977777511778
 30
0.0
 10
315.7572776988386
 20
-10.63977777511778
 30
0.0
 10
315.7572776988386
 20
-10.63977777511778
 30
0.0
 10
315.26691658785
 20
-10.63977777511778
 30
0.0
 10
314.7941943657459
 20
-10.70680555287898
 30
0.0
 10
314.3391110325263
 20
-10.82322221951652
 30
0.0
 10
314.3391110325263
 20
-10.82322221951652
 30
0.0
 10
367.1922776859799
 20
-63.67286109519282
 30
0.0
 10
367.1922776859799
 20
-63.67286109519282
 30
0.0
 10
367.1922776859799
 20
-63.67286109519282
 30
0.0
 10
362.948361020374
 20
-67.91677776079874
 30
0.0
 10
362.948361020374
 20
-67.91677776079874
 30
0.0
 10
362.948361020374
 20
-67.91677776079874
 30
0.0
 10
310.0987221446977
 20
-15.06361110734514
 30
0.0
 10
310.0987221446977
 20
-15.06361110734514
 30
0.0
 10
309.9823054780602
 20
-15.51869444056469
 30
0.0
 10
309.915277700299
 20
-15.99141666266879
 30
0.0
 10
309.915277700299
 20
-16.48177777365742
 30
0.0
 10
309.915277700299
 20
-16.48177777365742
 30
0.0
 10
309.915277700299
 20
-27.2097499931976
 30
0.0
 10
309.915277700299
 20
-27.2097499931976
 30
0.0
 10
309.915277700299
 20
-27.2097499931976
 30
0.0
 10
309.915277700299
 20
-33.21049999169749
 30
0.0
 10
309.915277700299
 20
-33.21049999169749
 30
0.0
 10
309.915277700299
 20
-33.21049999169749
 30
0.0
 10
309.915277700299
 20
-40.63999998983994
 30
0.0
 10
309.915277700299
 20
-40.63999998983994
 30
0.0
 10
309.915277700299
 20
-40.63999998983994
 30
0.0
 10
303.9180554795761
 20
-40.63999998983994
 30
0.0
 10
303.9180554795761
 20
-40.63999998983994
 30
0.0
 10
303.9180554795761
 20
-40.63999998983994
 30
0.0
 10
303.9180554795761
 20
-60.6389722070626
 30
0.0
 10
303.9180554795761
 20
-60.6389722070626
 30
0.0
 10
303.9180554795761
 20
-60.6389722070626
 30
0.0
 10
309.915277700299
 20
-60.6389722070626
 30
0.0
 10
309.915277700299
 20
-60.6389722070626
 30
0.0
 10
309.915277700299
 20
-60.6389722070626
 30
0.0
 10
309.915277700299
 20
-82.64172220156188
 30
0.0
 10
309.915277700299
 20
-82.64172220156188
 30
0.0
 10
309.915277700299
 20
-82.64172220156188
 30
0.0
 10
309.915277700299
 20
-88.64247220006176
 30
0.0
 10
309.915277700299
 20
-88.64247220006176
 30
0.0
 10
309.915277700299
 20
-88.64247220006176
 30
0.0
 10
309.915277700299
 20
-110.6416944167841
 30
0.0
 10
309.915277700299
 20
-110.6416944167841
 30
0.0
 10
309.915277700299
 20
-110.6416944167841
 30
0.0
 10
303.9180554795761
 20
-110.6416944167841
 30
0.0
 10
303.9180554795761
 20
-110.6416944167841
 30
0.0
 10
303.9180554795761
 20
-110.6416944167841
 30
0.0
 10
303.9180554795761
 20
-130.6406666340067
 30
0.0
 10
303.9180554795761
 20
-130.6406666340067
 30
0.0
 10
303.9180554795761
 20
-130.6406666340067
 30
0.0
 10
309.915277700299
 20
-130.6406666340067
 30
0.0
 10
309.915277700299
 20
-130.6406666340067
 30
0.0
 10
309.915277700299
 20
-130.6406666340067
 30
0.0
 10
309.915277700299
 20
-138.0701666321492
 30
0.0
 10
309.915277700299
 20
-138.0701666321492
 30
0.0
 10
309.915277700299
 20
-138.0701666321492
 30
0.0
 10
309.915277700299
 20
-144.0709166306491
 30
0.0
 10
309.915277700299
 20
-144.0709166306491
 30
0.0
 10
309.915277700299
 20
-144.0709166306491
 30
0.0
 10
309.915277700299
 20
-154.7988888501892
 30
0.0
 10
309.915277700299
 20
-154.7988888501892
 30
0.0
 10
309.915277700299
 20
-155.3209999611697
 30
0.0
 10
309.9928888113908
 20
-155.8254721832659
 30
0.0
 10
310.1198888113589
 20
-156.3087777387006
 30
0.0
 10
310.1198888113589
 20
-156.3087777387006
 30
0.0
 10
335.9820276937824
 20
-130.4466388562774
 30
0.0
 10
335.9820276937824
 20
-130.4466388562774
 30
0.0
 10
335.9820276937824
 20
-130.4466388562774
 30
0.0
 10
340.225944359388
 20
-134.687027744106
 30
0.0
 10
340.225944359388
 20
-134.687027744106
 30
0.0
 10
340.225944359388
 20
-134.687027744106
 30
0.0
 10
314.4308332547257
 20
-160.4821388487683
 30
0.0
 10
314.4308332547257
 20
-160.4821388487683
 30
0.0
 10
314.8576943657301
 20
-160.5844444042983
 30
0.0
 10
315.3021943656191
 20
-160.6408888487289
 30
0.0
 10
315.7572776988386
 20
-160.6408888487289
 30
0.0
 10
315.7572776988386
 20
-160.6408888487289
 30
0.0
 10
339.9154999150211
 20
-160.6408888487289
 30
0.0
 10
339.9154999150211
 20
-160.6408888487289
 30
0.0
  0
POLYLINE
  5
F8
330
49
100
AcDbEntity
  8
LAAG_1
 62
   250
100
AcDb2dPolyline
 66
     1
 10
0.0
 20
0.0
 30
0.0
  0
VERTEX
  5
F9
330
F8
100
AcDbEntity
  8
LAAG_1
 62
   250
100
AcDbVertex
100
AcDb2dVertex
 10
537.9155554210764
 20
-60.6389722070626
 30
0.0
  0
VERTEX
  5
FA
330
F8
100
AcDbEntity
  8
LAAG_1
 62
   250
100
AcDbVertex
100
AcDb2dVertex
 10
531.9148054225772
 20
-60.6389722070626
 30
0.0
  0
VERTEX
  5
FB
330
F8
100
AcDbEntity
  8
LAAG_1
 62
   250
100
AcDbVertex
100
AcDb2dVertex
 10
531.9148054225772
 20
-40.63999998983994
 30
0.0
  0
VERTEX
  5
FC
330
F8
100
AcDbEntity
  8
LAAG_1
 62
   250
100
AcDbVertex
100
AcDb2dVertex
 10
537.9155554210764
 20
-40.63999998983994
 30
0.0
  0
VERTEX
  5
FD
330
F8
100
AcDbEntity
  8
LAAG_1
 62
   250
100
AcDbVertex
100
AcDb2dVertex
 10
537.9155554210764
 20
-60.6389722070626
 30
0.0
  0
SEQEND
  5
FE
330
F8
100
AcDbEntity
  8
LAAG_1
 62
   250
  0
POLYLINE
  5
FF
330
49
100
AcDbEntity
  8
LAAG_1
 62
   250
100
AcDb2dPolyline
 66
     1
 10
0.0
 20
0.0
 30
0.0
  0
VERTEX
  5
100
330
FF
100
AcDbEntity
  8
LAAG_1
 62
   250
100
AcDbVertex
100
AcDb2dVertex
 10
537.9155554210764
 20
-130.6406666340067
 30
0.0
  0
VERTEX
  5
101
330
FF
100
AcDbEntity
  8
LAAG_1
 62
   250
100
AcDbVertex
100
AcDb2dVertex
 10
531.9148054225772
 20
-130.6406666340067
 30
0.0
  0
VERTEX
  5
102
330
FF
100
AcDbEntity
  8
LAAG_1
 62
   250
100
AcDbVertex
100
AcDb2dVertex
 10
531.9148054225772
 20
-110.6416944167841
 30
0.0
  0
VERTEX
  5
103
330
FF
100
AcDbEntity
  8
LAAG_1
 62
   250
100
AcDbVertex
100
AcDb2dVertex
 10
537.9155554210764
 20
-110.6416944167841
 30
0.0
  0
VERTEX
  5
104
330
FF
100
AcDbEntity
  8
LAAG_1
 62
   250
100
AcDbVertex
100
AcDb2dVertex
 10
537.9155554210764
 20
-130.6406666340067
 30
0.0
  0
SEQEND
  5
105
330
FF
100
AcDbEntity
  8
LAAG_1
 62
   250
  0
POLYLINE
  5
106
330
49
100
AcDbEntity
  8
LAAG_1
 62
   250
100
AcDb2dPolyline
 66
     1
 10
0.0
 20
0.0
 30
0.0
  0
VERTEX
  5
107
330
106
100
AcDbEntity
  8
LAAG_1
 62
   250
100
AcDbVertex
100
AcDb2dVertex
 10
489.9166109886319
 20
-88.64247220006176
 30
0.0
  0
VERTEX
  5
108
330
106
100
AcDbEntity
  8
LAAG_1
 62
   250
100
AcDbVertex
100
AcDb2dVertex
 10
489.9166109886319
 20
-82.64172220156188
 30
0.0
  0
VERTEX
  5
109
330
106
100
AcDbEntity
  8
LAAG_1
 62
   250
100
AcDbVertex
100
AcDb2dVertex
 10
509.9155832058545
 20
-82.64172220156188
 30
0.0
  0
VERTEX
  5
10A
330
106
100
AcDbEntity
  8
LAAG_1
 62
   250
100
AcDbVertex
100
AcDb2dVertex
 10
509.9155832058545
 20
-88.64247220006176
 30
0.0
  0
VERTEX
  5
10B
330
106
100
AcDbEntity
  8
LAAG_1
 62
   250
100
AcDbVertex
100
AcDb2dVertex
 10
489.9166109886319
 20
-88.64247220006176
 30
0.0
  0
SEQEND
  5
10C
330
106
100
AcDbEntity
  8
LAAG_1
 62
   250
  0
POLYLINE
  5
10D
330
49
100
AcDbEntity
  8
LAAG_1
 62
   250
100
AcDb2dPolyline
 66
     1
 10
0.0
 20
0.0
 30
0.0
  0
VERTEX
  5
10E
330
10D
100
AcDbEntity
  8
LAAG_1
 62
   250
100
AcDbVertex
100
AcDb2dVertex
 10
559.914777637799
 20
-154.643666628006
 30
0.0
  0
VERTEX
  5
10F
330
10D
100
AcDbEntity
  8
LAAG_1
 62
   250
100
AcDbVertex
100
AcDb2dVertex
 10
559.914777637799
 20
-154.640138850229
 30
0.0
  0
VERTEX
  5
110
330
10D
100
AcDbEntity
  8
LAAG_1
 62
   250
100
AcDbVertex
100
AcDb2dVertex
 10
579.9172776327987
 20
-154.640138850229
 30
0.0
  0
VERTEX
  5
111
330
10D
100
AcDbEntity
  8
LAAG_1
 62
   250
100
AcDbVertex
100
AcDb2dVertex
 10
579.9172776327987
 20
-154.643666628006
 30
0.0
  0
SEQEND
  5
112
330
10D
100
AcDbEntity
  8
LAAG_1
 62
   250
  0
POLYLINE
  5
113
330
49
100
AcDbEntity
  8
LAAG_1
 62
   250
100
AcDb2dPolyline
 66
     1
 10
0.0
 20
0.0
 30
0.0
  0
VERTEX
  5
114
330
113
100
AcDbEntity
  8
LAAG_1
 62
   250
100
AcDbVertex
100
AcDb2dVertex
 10
509.9155832058545
 20
-160.6408888487289
 30
0.0
  0
VERTEX
  5
115
330
113
100
AcDbEntity
  8
LAAG_1
 62
   250
100
AcDbVertex
100
AcDb2dVertex
 10
559.914777637799
 20
-160.6408888487289
 30
0.0
  0
SEQEND
  5
116
330
113
100
AcDbEntity
  8
LAAG_1
 62
   250
  0
POLYLINE
  5
117
330
49
100
AcDbEntity
  8
LAAG_1
 62
   250
100
AcDb2dPolyline
 66
     1
 10
0.0
 20
0.0
 30
0.0
  0
VERTEX
  5
118
330
117
100
AcDbEntity
  8
LAAG_1
 62
   250
100
AcDbVertex
100
AcDb2dVertex
 10
489.9166109886319
 20
-154.643666628006
 30
0.0
  0
VERTEX
  5
119
330
117
100
AcDbEntity
  8
LAAG_1
 62
   250
100
AcDbVertex
100
AcDb2dVertex
 10
489.9166109886319
 20
-154.640138850229
 30
0.0
  0
VERTEX
  5
11A
330
117
100
AcDbEntity
  8
LAAG_1
 62
   250
100
AcDbVertex
100
AcDb2dVertex
 10
509.9155832058545
 20
-154.640138850229
 30
0.0
  0
VERTEX
  5
11B
330
117
100
AcDbEntity
  8
LAAG_1
 62
   250
100
AcDbVertex
100
AcDb2dVertex
 10
509.9155832058545
 20
-154.643666628006
 30
0.0
  0
SEQEND
  5
11C
330
117
100
AcDbEntity
  8
LAAG_1
 62
   250
  0
SPLINE
  5
11D
330
49
100
AcDbEntity
  8
LAAG_1
 62
   250
100
AcDbSpline
210
0.0
220
0.0
230
1.0
 70
     8
 71
     3
 72
   182
 73
   178
 74
     0
 42
0.0000000001
 43
0.0000000001
 12
1.0
 22
0.0
 32
0.0
 13
1.0
 23
0.0
 33
0.0
 40
0.0
 40
0.0
 40
0.0
 40
0.0
 40
1.0
 40
1.0
 40
1.0
 40
2.0
 40
2.0
 40
2.0
 40
3.0
 40
3.0
 40
3.0
 40
4.0
 40
4.0
 40
4.0
 40
5.0
 40
5.0
 40
5.0
 40
6.0
 40
6.0
 40
6.0
 40
7.0
 40
7.0
 40
7.0
 40
8.0
 40
8.0
 40
8.0
 40
9.0
 40
9.0
 40
9.0
 40
10.0
 40
10.0
 40
10.0
 40
11.0
 40
11.0
 40
11.0
 40
12.0
 40
12.0
 40
12.0
 40
13.0
 40
13.0
 40
13.0
 40
14.0
 40
14.0
 40
14.0
 40
15.0
 40
15.0
 40
15.0
 40
16.0
 40
16.0
 40
16.0
 40
17.0
 40
17.0
 40
17.0
 40
18.0
 40
18.0
 40
18.0
 40
19.0
 40
19.0
 40
19.0
 40
20.0
 40
20.0
 40
20.0
 40
21.0
 40
21.0
 40
21.0
 40
22.0
 40
22.0
 40
22.0
 40
23.0
 40
23.0
 40
23.0
 40
24.0
 40
24.0
 40
24.0
 40
25.0
 40
25.0
 40
25.0
 40
26.0
 40
26.0
 40
26.0
 40
27.0
 40
27.0
 40
27.0
 40
28.0
 40
28.0
 40
28.0
 40
29.0
 40
29.0
 40
29.0
 40
30.0
 40
30.0
 40
30.0
 40
31.0
 40
31.0
 40
31.0
 40
32.0
 40
32.0
 40
32.0
 40
33.0
 40
33.0
 40
33.0
 40
34.0
 40
34.0
 40
34.0
 40
35.0
 40
35.0
 40
35.0
 40
36.0
 40
36.0
 40
36.0
 40
37.0
 40
37.0
 40
37.0
 40
38.0
 40
38.0
 40
38.0
 40
39.0
 40
39.0
 40
39.0
 40
40.0
 40
40.0
 40
40.0
 40
41.0
 40
41.0
 40
41.0
 40
42.0
 40
42.0
 40
42.0
 40
43.0
 40
43.0
 40
43.0
 40
44.0
 40
44.0
 40
44.0
 40
45.0
 40
45.0
 40
45.0
 40
46.0
 40
46.0
 40
46.0
 40
47.0
 40
47.0
 40
47.0
 40
48.0
 40
48.0
 40
48.0
 40
49.0
 40
49.0
 40
49.0
 40
50.0
 40
50.0
 40
50.0
 40
51.0
 40
51.0
 40
51.0
 40
52.0
 40
52.0
 40
52.0
 40
53.0
 40
53.0
 40
53.0
 40
54.0
 40
54.0
 40
54.0
 40
55.0
 40
55.0
 40
55.0
 40
56.0
 40
56.0
 40
56.0
 40
57.0
 40
57.0
 40
57.0
 40
58.0
 40
58.0
 40
58.0
 40
59.0
 40
59.0
 40
59.0
 40
59.0
 10
579.9172776327987
 20
-160.6408888487289
 30
0.0
 10
579.9172776327987
 20
-160.6408888487289
 30
0.0
 10
604.0754998489812
 20
-160.6408888487289
 30
0.0
 10
604.0754998489812
 20
-160.6408888487289
 30
0.0
 10
607.2998887370638
 20
-160.6408888487289
 30
0.0
 10
609.9174998475205
 20
-158.0232777382722
 30
0.0
 10
609.9174998475205
 20
-154.7988888501892
 30
0.0
 10
609.9174998475205
 20
-154.7988888501892
 30
0.0
 10
609.9174998475205
 20
-144.0709166306491
 30
0.0
 10
609.9174998475205
 20
-144.0709166306491
 30
0.0
 10
609.9174998475205
 20
-144.0709166306491
 30
0.0
 10
534.9169443107149
 20
-144.0709166306491
 30
0.0
 10
534.9169443107149
 20
-144.0709166306491
 30
0.0
 10
534.9169443107149
 20
-144.0709166306491
 30
0.0
 10
534.9169443107149
 20
-138.0701666321492
 30
0.0
 10
534.9169443107149
 20
-138.0701666321492
 30
0.0
 10
534.9169443107149
 20
-138.0701666321492
 30
0.0
 10
609.9174998475205
 20
-138.0701666321492
 30
0.0
 10
609.9174998475205
 20
-138.0701666321492
 30
0.0
 10
609.9174998475205
 20
-138.0701666321492
 30
0.0
 10
609.9174998475205
 20
-130.6406666340067
 30
0.0
 10
609.9174998475205
 20
-130.6406666340067
 30
0.0
 10
609.9174998475205
 20
-130.6406666340067
 30
0.0
 10
603.9167498490207
 20
-130.6406666340067
 30
0.0
 10
603.9167498490207
 20
-130.6406666340067
 30
0.0
 10
603.9167498490207
 20
-130.6406666340067
 30
0.0
 10
603.9167498490207
 20
-110.6416944167841
 30
0.0
 10
603.9167498490207
 20
-110.6416944167841
 30
0.0
 10
603.9167498490207
 20
-110.6416944167841
 30
0.0
 10
609.9174998475205
 20
-110.6416944167841
 30
0.0
 10
609.9174998475205
 20
-110.6416944167841
 30
0.0
 10
609.9174998475205
 20
-110.6416944167841
 30
0.0
 10
609.9174998475205
 20
-88.64247220006176
 30
0.0
 10
609.9174998475205
 20
-88.64247220006176
 30
0.0
 10
609.9174998475205
 20
-88.64247220006176
 30
0.0
 10
534.9169443107149
 20
-88.64247220006176
 30
0.0
 10
534.9169443107149
 20
-88.64247220006176
 30
0.0
 10
534.9169443107149
 20
-88.64247220006176
 30
0.0
 10
534.9169443107149
 20
-82.64172220156188
 30
0.0
 10
534.9169443107149
 20
-82.64172220156188
 30
0.0
 10
534.9169443107149
 20
-82.64172220156188
 30
0.0
 10
609.9174998475205
 20
-82.64172220156188
 30
0.0
 10
609.9174998475205
 20
-82.64172220156188
 30
0.0
 10
609.9174998475205
 20
-82.64172220156188
 30
0.0
 10
609.9174998475205
 20
-60.6389722070626
 30
0.0
 10
609.9174998475205
 20
-60.6389722070626
 30
0.0
 10
609.9174998475205
 20
-60.6389722070626
 30
0.0
 10
603.9167498490207
 20
-60.6389722070626
 30
0.0
 10
603.9167498490207
 20
-60.6389722070626
 30
0.0
 10
603.9167498490207
 20
-60.6389722070626
 30
0.0
 10
603.9167498490207
 20
-40.63999998983994
 30
0.0
 10
603.9167498490207
 20
-40.63999998983994
 30
0.0
 10
603.9167498490207
 20
-40.63999998983994
 30
0.0
 10
609.9174998475205
 20
-40.63999998983994
 30
0.0
 10
609.9174998475205
 20
-40.63999998983994
 30
0.0
 10
609.9174998475205
 20
-40.63999998983994
 30
0.0
 10
609.9174998475205
 20
-33.21049999169749
 30
0.0
 10
609.9174998475205
 20
-33.21049999169749
 30
0.0
 10
609.9174998475205
 20
-33.21049999169749
 30
0.0
 10
534.9169443107149
 20
-33.21049999169749
 30
0.0
 10
534.9169443107149
 20
-33.21049999169749
 30
0.0
 10
534.9169443107149
 20
-33.21049999169749
 30
0.0
 10
534.9169443107149
 20
-27.2097499931976
 30
0.0
 10
534.9169443107149
 20
-27.2097499931976
 30
0.0
 10
534.9169443107149
 20
-27.2097499931976
 30
0.0
 10
609.9174998475205
 20
-27.2097499931976
 30
0.0
 10
609.9174998475205
 20
-27.2097499931976
 30
0.0
 10
609.9174998475205
 20
-27.2097499931976
 30
0.0
 10
609.9174998475205
 20
-16.48177777365742
 30
0.0
 10
609.9174998475205
 20
-16.48177777365742
 30
0.0
 10
609.9174998475205
 20
-13.25738888557452
 30
0.0
 10
607.2998887370638
 20
-10.63977777511778
 30
0.0
 10
604.0754998489812
 20
-10.63977777511778
 30
0.0
 10
604.0754998489812
 20
-10.63977777511778
 30
0.0
 10
579.9172776327987
 20
-10.63977777511778
 30
0.0
 10
579.9172776327987
 20
-10.63977777511778
 30
0.0
 10
579.9172776327987
 20
-10.63977777511778
 30
0.0
 10
579.9172776327987
 20
-4.639027776618214
 30
0.0
 10
579.9172776327987
 20
-4.639027776618214
 30
0.0
 10
579.9172776327987
 20
-4.639027776618214
 30
0.0
 10
559.914777637799
 20
-4.639027776618214
 30
0.0
 10
559.914777637799
 20
-4.639027776618214
 30
0.0
 10
559.914777637799
 20
-4.639027776618214
 30
0.0
 10
559.914777637799
 20
-10.63977777511778
 30
0.0
 10
559.914777637799
 20
-10.63977777511778
 30
0.0
 10
559.914777637799
 20
-10.63977777511778
 30
0.0
 10
509.9155832058545
 20
-10.63977777511778
 30
0.0
 10
509.9155832058545
 20
-10.63977777511778
 30
0.0
 10
509.9155832058545
 20
-10.63977777511778
 30
0.0
 10
509.9155832058545
 20
-4.639027776618214
 30
0.0
 10
509.9155832058545
 20
-4.639027776618214
 30
0.0
 10
509.9155832058545
 20
-4.639027776618214
 30
0.0
 10
489.9166109886319
 20
-4.639027776618214
 30
0.0
 10
489.9166109886319
 20
-4.639027776618214
 30
0.0
 10
489.9166109886319
 20
-4.639027776618214
 30
0.0
 10
489.9166109886319
 20
-10.63977777511778
 30
0.0
 10
489.9166109886319
 20
-10.63977777511778
 30
0.0
 10
489.9166109886319
 20
-10.63977777511778
 30
0.0
 10
465.7583887724494
 20
-10.63977777511778
 30
0.0
 10
465.7583887724494
 20
-10.63977777511778
 30
0.0
 10
465.2680276614611
 20
-10.63977777511778
 30
0.0
 10
464.795305439357
 20
-10.70680555287898
 30
0.0
 10
464.3402221061371
 20
-10.82322221951652
 30
0.0
 10
464.3402221061371
 20
-10.82322221951652
 30
0.0
 10
517.1933887595903
 20
-63.67286109519282
 30
0.0
 10
517.1933887595903
 20
-63.67286109519282
 30
0.0
 10
517.1933887595903
 20
-63.67286109519282
 30
0.0
 10
512.9494720939852
 20
-67.91677776079874
 30
0.0
 10
512.9494720939852
 20
-67.91677776079874
 30
0.0
 10
512.9494720939852
 20
-67.91677776079874
 30
0.0
 10
460.0963054405318
 20
-15.06361110734514
 30
0.0
 10
460.0963054405318
 20
-15.06361110734514
 30
0.0
 10
459.9834165516706
 20
-15.51869444056469
 30
0.0
 10
459.9163887739101
 20
-15.99141666266879
 30
0.0
 10
459.9163887739101
 20
-16.48177777365742
 30
0.0
 10
459.9163887739101
 20
-16.48177777365742
 30
0.0
 10
459.9163887739101
 20
-27.2097499931976
 30
0.0
 10
459.9163887739101
 20
-27.2097499931976
 30
0.0
 10
459.9163887739101
 20
-27.2097499931976
 30
0.0
 10
459.9163887739101
 20
-33.21049999169749
 30
0.0
 10
459.9163887739101
 20
-33.21049999169749
 30
0.0
 10
459.9163887739101
 20
-33.21049999169749
 30
0.0
 10
459.9163887739101
 20
-40.63999998983994
 30
0.0
 10
459.9163887739101
 20
-40.63999998983994
 30
0.0
 10
459.9163887739101
 20
-40.63999998983994
 30
0.0
 10
453.9156387754102
 20
-40.63999998983994
 30
0.0
 10
453.9156387754102
 20
-40.63999998983994
 30
0.0
 10
453.9156387754102
 20
-40.63999998983994
 30
0.0
 10
453.9156387754102
 20
-60.6389722070626
 30
0.0
 10
453.9156387754102
 20
-60.6389722070626
 30
0.0
 10
453.9156387754102
 20
-60.6389722070626
 30
0.0
 10
459.9163887739101
 20
-60.6389722070626
 30
0.0
 10
459.9163887739101
 20
-60.6389722070626
 30
0.0
 10
459.9163887739101
 20
-60.6389722070626
 30
0.0
 10
459.9163887739101
 20
-82.64172220156188
 30
0.0
 10
459.9163887739101
 20
-82.64172220156188
 30
0.0
 10
459.9163887739101
 20
-82.64172220156188
 30
0.0
 10
459.9163887739101
 20
-88.64247220006176
 30
0.0
 10
459.9163887739101
 20
-88.64247220006176
 30
0.0
 10
459.9163887739101
 20
-88.64247220006176
 30
0.0
 10
459.9163887739101
 20
-110.6416944167841
 30
0.0
 10
459.9163887739101
 20
-110.6416944167841
 30
0.0
 10
459.9163887739101
 20
-110.6416944167841
 30
0.0
 10
453.9156387754102
 20
-110.6416944167841
 30
0.0
 10
453.9156387754102
 20
-110.6416944167841
 30
0.0
 10
453.9156387754102
 20
-110.6416944167841
 30
0.0
 10
453.9156387754102
 20
-130.6406666340067
 30
0.0
 10
453.9156387754102
 20
-130.6406666340067
 30
0.0
 10
453.9156387754102
 20
-130.6406666340067
 30
0.0
 10
459.9163887739101
 20
-130.6406666340067
 30
0.0
 10
459.9163887739101
 20
-130.6406666340067
 30
0.0
 10
459.9163887739101
 20
-130.6406666340067
 30
0.0
 10
459.9163887739101
 20
-138.0701666321492
 30
0.0
 10
459.9163887739101
 20
-138.0701666321492
 30
0.0
 10
459.9163887739101
 20
-138.0701666321492
 30
0.0
 10
459.9163887739101
 20
-144.0709166306491
 30
0.0
 10
459.9163887739101
 20
-144.0709166306491
 30
0.0
 10
459.9163887739101
 20
-144.0709166306491
 30
0.0
 10
459.9163887739101
 20
-154.7988888501892
 30
0.0
 10
459.9163887739101
 20
-154.7988888501892
 30
0.0
 10
459.9163887739101
 20
-155.3209999611697
 30
0.0
 10
459.9904721072245
 20
-155.8254721832659
 30
0.0
 10
460.12099988497
 20
-156.3087777387006
 30
0.0
 10
460.12099988497
 20
-156.3087777387006
 30
0.0
 10
485.9831387673932
 20
-130.4466388562774
 30
0.0
 10
485.9831387673932
 20
-130.4466388562774
 30
0.0
 10
485.9831387673932
 20
-130.4466388562774
 30
0.0
 10
490.2270554329991
 20
-134.687027744106
 30
0.0
 10
490.2270554329991
 20
-134.687027744106
 30
0.0
 10
490.2270554329991
 20
-134.687027744106
 30
0.0
 10
464.4319443283365
 20
-160.4821388487683
 30
0.0
 10
464.4319443283365
 20
-160.4821388487683
 30
0.0
 10
464.8588054393412
 20
-160.5844444042983
 30
0.0
 10
465.2997776614532
 20
-160.6408888487289
 30
0.0
 10
465.7583887724494
 20
-160.6408888487289
 30
0.0
 10
465.7583887724494
 20
-160.6408888487289
 30
0.0
 10
489.9166109886319
 20
-160.6408888487289
 30
0.0
 10
489.9166109886319
 20
-160.6408888487289
 30
0.0
  0
POLYLINE
  5
11E
330
49
100
AcDbEntity
  8
LAAG_1
 62
   250
100
AcDb2dPolyline
 66
     1
 10
0.0
 20
0.0
 30
0.0
  0
VERTEX
  5
11F
330
11E
100
AcDbEntity
  8
LAAG_1
 62
   250
100
AcDbVertex
100
AcDb2dVertex
 10
87.91574997802108
 20
-210.6436110584503
 30
0.0
  0
VERTEX
  5
120
330
11E
100
AcDbEntity
  8
LAAG_1
 62
   250
100
AcDbVertex
100
AcDb2dVertex
 10
81.91499997952118
 20
-210.6436110584503
 30
0.0
  0
VERTEX
  5
121
330
11E
100
AcDbEntity
  8
LAAG_1
 62
   250
100
AcDbVertex
100
AcDb2dVertex
 10
81.91499997952118
 20
-190.6446388412277
 30
0.0
  0
VERTEX
  5
122
330
11E
100
AcDbEntity
  8
LAAG_1
 62
   250
100
AcDbVertex
100
AcDb2dVertex
 10
87.91574997802108
 20
-190.6446388412277
 30
0.0
  0
VERTEX
  5
123
330
11E
100
AcDbEntity
  8
LAAG_1
 62
   250
100
AcDbVertex
100
AcDb2dVertex
 10
87.91574997802108
 20
-210.6436110584503
 30
0.0
  0
SEQEND
  5
124
330
11E
100
AcDbEntity
  8
LAAG_1
 62
   250
  0
POLYLINE
  5
125
330
49
100
AcDbEntity
  8
LAAG_1
 62
   250
100
AcDb2dPolyline
 66
     1
 10
0.0
 20
0.0
 30
0.0
  0
VERTEX
  5
126
330
125
100
AcDbEntity
  8
LAAG_1
 62
   250
100
AcDbVertex
100
AcDb2dVertex
 10
87.91574997802108
 20
-280.6453054853945
 30
0.0
  0
VERTEX
  5
127
330
125
100
AcDbEntity
  8
LAAG_1
 62
   250
100
AcDbVertex
100
AcDb2dVertex
 10
81.91499997952118
 20
-280.6453054853945
 30
0.0
  0
VERTEX
  5
128
330
125
100
AcDbEntity
  8
LAAG_1
 62
   250
100
AcDbVertex
100
AcDb2dVertex
 10
81.91499997952118
 20
-260.6463332681718
 30
0.0
  0
VERTEX
  5
129
330
125
100
AcDbEntity
  8
LAAG_1
 62
   250
100
AcDbVertex
100
AcDb2dVertex
 10
87.91574997802108
 20
-260.6463332681718
 30
0.0
  0
VERTEX
  5
12A
330
125
100
AcDbEntity
  8
LAAG_1
 62
   250
100
AcDbVertex
100
AcDb2dVertex
 10
87.91574997802108
 20
-280.6453054853945
 30
0.0
  0
SEQEND
  5
12B
330
125
100
AcDbEntity
  8
LAAG_1
 62
   250
  0
POLYLINE
  5
12C
330
49
100
AcDbEntity
  8
LAAG_1
 62
   250
100
AcDb2dPolyline
 66
     1
 10
0.0
 20
0.0
 30
0.0
  0
VERTEX
  5
12D
330
12C
100
AcDbEntity
  8
LAAG_1
 62
   250
100
AcDbVertex
100
AcDb2dVertex
 10
39.91680554557655
 20
-238.6435832736722
 30
0.0
  0
VERTEX
  5
12E
330
12C
100
AcDbEntity
  8
LAAG_1
 62
   250
100
AcDbVertex
100
AcDb2dVertex
 10
39.91680554557655
 20
-232.6463610529493
 30
0.0
  0
VERTEX
  5
12F
330
12C
100
AcDbEntity
  8
LAAG_1
 62
   250
100
AcDbVertex
100
AcDb2dVertex
 10
59.91577776279889
 20
-232.6463610529493
 30
0.0
  0
VERTEX
  5
130
330
12C
100
AcDbEntity
  8
LAAG_1
 62
   250
100
AcDbVertex
100
AcDb2dVertex
 10
59.91577776279889
 20
-238.6435832736722
 30
0.0
  0
VERTEX
  5
131
330
12C
100
AcDbEntity
  8
LAAG_1
 62
   250
100
AcDbVertex
100
AcDb2dVertex
 10
39.91680554557655
 20
-238.6435832736722
 30
0.0
  0
SEQEND
  5
132
330
12C
100
AcDbEntity
  8
LAAG_1
 62
   250
  0
POLYLINE
  5
133
330
49
100
AcDbEntity
  8
LAAG_1
 62
   250
100
AcDb2dPolyline
 66
     1
 10
0.0
 20
0.0
 30
0.0
  0
VERTEX
  5
134
330
133
100
AcDbEntity
  8
LAAG_1
 62
   250
100
AcDbVertex
100
AcDb2dVertex
 10
159.9176944044652
 20
-183.2151388430852
 30
0.0
  0
VERTEX
  5
135
330
133
100
AcDbEntity
  8
LAAG_1
 62
   250
100
AcDbVertex
100
AcDb2dVertex
 10
84.91713886765962
 20
-183.2151388430852
 30
0.0
  0
VERTEX
  5
136
330
133
100
AcDbEntity
  8
LAAG_1
 62
   250
100
AcDbVertex
100
AcDb2dVertex
 10
84.91713886765962
 20
-177.2143888445854
 30
0.0
  0
VERTEX
  5
137
330
133
100
AcDbEntity
  8
LAAG_1
 62
   250
100
AcDbVertex
100
AcDb2dVertex
 10
159.9176944044652
 20
-177.2143888445854
 30
0.0
  0
SEQEND
  5
138
330
133
100
AcDbEntity
  8
LAAG_1
 62
   250
  0
POLYLINE
  5
139
330
49
100
AcDbEntity
  8
LAAG_1
 62
   250
100
AcDb2dPolyline
 66
     1
 10
0.0
 20
0.0
 30
0.0
  0
VERTEX
  5
13A
330
139
100
AcDbEntity
  8
LAAG_1
 62
   250
100
AcDbVertex
100
AcDb2dVertex
 10
159.9176944044652
 20
-238.6435832736722
 30
0.0
  0
VERTEX
  5
13B
330
139
100
AcDbEntity
  8
LAAG_1
 62
   250
100
AcDbVertex
100
AcDb2dVertex
 10
84.91713886765962
 20
-238.6435832736722
 30
0.0
  0
VERTEX
  5
13C
330
139
100
AcDbEntity
  8
LAAG_1
 62
   250
100
AcDbVertex
100
AcDb2dVertex
 10
84.91713886765962
 20
-232.6463610529493
 30
0.0
  0
VERTEX
  5
13D
330
139
100
AcDbEntity
  8
LAAG_1
 62
   250
100
AcDbVertex
100
AcDb2dVertex
 10
159.9176944044652
 20
-232.6463610529493
 30
0.0
  0
SEQEND
  5
13E
330
139
100
AcDbEntity
  8
LAAG_1
 62
   250
  0
POLYLINE
  5
13F
330
49
100
AcDbEntity
  8
LAAG_1
 62
   250
100
AcDb2dPolyline
 66
     1
 10
0.0
 20
0.0
 30
0.0
  0
VERTEX
  5
140
330
13F
100
AcDbEntity
  8
LAAG_1
 62
   250
100
AcDbVertex
100
AcDb2dVertex
 10
159.9176944044652
 20
-294.0755554820368
 30
0.0
  0
VERTEX
  5
141
330
13F
100
AcDbEntity
  8
LAAG_1
 62
   250
100
AcDbVertex
100
AcDb2dVertex
 10
84.91713886765962
 20
-294.0755554820368
 30
0.0
  0
VERTEX
  5
142
330
13F
100
AcDbEntity
  8
LAAG_1
 62
   250
100
AcDbVertex
100
AcDb2dVertex
 10
84.91713886765962
 20
-288.0748054835369
 30
0.0
  0
VERTEX
  5
143
330
13F
100
AcDbEntity
  8
LAAG_1
 62
   250
100
AcDbVertex
100
AcDb2dVertex
 10
159.9176944044652
 20
-288.0748054835369
 30
0.0
  0
SEQEND
  5
144
330
13F
100
AcDbEntity
  8
LAAG_1
 62
   250
  0
SPLINE
  5
145
330
49
100
AcDbEntity
  8
LAAG_1
 62
   250
100
AcDbSpline
210
0.0
220
0.0
230
1.0
 70
     8
 71
     3
 72
   134
 73
   130
 74
     0
 42
0.0000000001
 43
0.0000000001
 12
1.0
 22
0.0
 32
0.0
 13
1.0
 23
0.0
 33
0.0
 40
0.0
 40
0.0
 40
0.0
 40
0.0
 40
1.0
 40
1.0
 40
1.0
 40
2.0
 40
2.0
 40
2.0
 40
3.0
 40
3.0
 40
3.0
 40
4.0
 40
4.0
 40
4.0
 40
5.0
 40
5.0
 40
5.0
 40
6.0
 40
6.0
 40
6.0
 40
7.0
 40
7.0
 40
7.0
 40
8.0
 40
8.0
 40
8.0
 40
9.0
 40
9.0
 40
9.0
 40
10.0
 40
10.0
 40
10.0
 40
11.0
 40
11.0
 40
11.0
 40
12.0
 40
12.0
 40
12.0
 40
13.0
 40
13.0
 40
13.0
 40
14.0
 40
14.0
 40
14.0
 40
15.0
 40
15.0
 40
15.0
 40
16.0
 40
16.0
 40
16.0
 40
17.0
 40
17.0
 40
17.0
 40
18.0
 40
18.0
 40
18.0
 40
19.0
 40
19.0
 40
19.0
 40
20.0
 40
20.0
 40
20.0
 40
21.0
 40
21.0
 40
21.0
 40
22.0
 40
22.0
 40
22.0
 40
23.0
 40
23.0
 40
23.0
 40
24.0
 40
24.0
 40
24.0
 40
25.0
 40
25.0
 40
25.0
 40
26.0
 40
26.0
 40
26.0
 40
27.0
 40
27.0
 40
27.0
 40
28.0
 40
28.0
 40
28.0
 40
29.0
 40
29.0
 40
29.0
 40
30.0
 40
30.0
 40
30.0
 40
31.0
 40
31.0
 40
31.0
 40
32.0
 40
32.0
 40
32.0
 40
33.0
 40
33.0
 40
33.0
 40
34.0
 40
34.0
 40
34.0
 40
35.0
 40
35.0
 40
35.0
 40
36.0
 40
36.0
 40
36.0
 40
37.0
 40
37.0
 40
37.0
 40
38.0
 40
38.0
 40
38.0
 40
39.0
 40
39.0
 40
39.0
 40
40.0
 40
40.0
 40
40.0
 40
41.0
 40
41.0
 40
41.0
 40
42.0
 40
42.0
 40
42.0
 40
43.0
 40
43.0
 40
43.0
 40
43.0
 10
159.9176944044652
 20
-166.4864166250452
 30
0.0
 10
159.9176944044652
 20
-163.2620277369623
 30
0.0
 10
157.3000832940084
 20
-160.6444166265055
 30
0.0
 10
154.0721666281486
 20
-160.6444166265055
 30
0.0
 10
154.0721666281486
 20
-160.6444166265055
 30
0.0
 10
129.917472189743
 20
-160.6444166265055
 30
0.0
 10
129.917472189743
 20
-160.6444166265055
 30
0.0
 10
129.917472189743
 20
-160.6444166265055
 30
0.0
 10
129.917472189743
 20
-160.6408888487289
 30
0.0
 10
129.917472189743
 20
-160.6408888487289
 30
0.0
 10
129.917472189743
 20
-160.6408888487289
 30
0.0
 10
129.917472189743
 20
-154.643666628006
 30
0.0
 10
129.917472189743
 20
-154.643666628006
 30
0.0
 10
129.917472189743
 20
-154.643666628006
 30
0.0
 10
109.9149721947434
 20
-154.643666628006
 30
0.0
 10
109.9149721947434
 20
-154.643666628006
 30
0.0
 10
109.9149721947434
 20
-154.643666628006
 30
0.0
 10
109.9149721947434
 20
-160.6408888487289
 30
0.0
 10
109.9149721947434
 20
-160.6408888487289
 30
0.0
 10
109.9149721947434
 20
-160.6408888487289
 30
0.0
 10
109.9149721947434
 20
-160.6444166265055
 30
0.0
 10
109.9149721947434
 20
-160.6444166265055
 30
0.0
 10
109.9149721947434
 20
-160.6444166265055
 30
0.0
 10
59.91577776279889
 20
-160.6444166265055
 30
0.0
 10
59.91577776279889
 20
-160.6444166265055
 30
0.0
 10
59.91577776279889
 20
-160.6444166265055
 30
0.0
 10
59.91577776279889
 20
-160.6408888487289
 30
0.0
 10
59.91577776279889
 20
-160.6408888487289
 30
0.0
 10
59.91577776279889
 20
-160.6408888487289
 30
0.0
 10
59.91577776279889
 20
-154.643666628006
 30
0.0
 10
59.91577776279889
 20
-154.643666628006
 30
0.0
 10
59.91577776279889
 20
-154.643666628006
 30
0.0
 10
39.91680554557655
 20
-154.643666628006
 30
0.0
 10
39.91680554557655
 20
-154.643666628006
 30
0.0
 10
39.91680554557655
 20
-154.643666628006
 30
0.0
 10
39.91680554557655
 20
-160.6408888487289
 30
0.0
 10
39.91680554557655
 20
-160.6408888487289
 30
0.0
 10
39.91680554557655
 20
-160.6408888487289
 30
0.0
 10
39.91680554557655
 20
-160.6444166265055
 30
0.0
 10
39.91680554557655
 20
-160.6444166265055
 30
0.0
 10
39.91680554557655
 20
-160.6444166265055
 30
0.0
 10
15.75858332939371
 20
-160.6444166265055
 30
0.0
 10
15.75858332939371
 20
-160.6444166265055
 30
0.0
 10
15.26822221840508
 20
-160.6444166265055
 30
0.0
 10
14.79549999630131
 20
-160.7114444042667
 30
0.0
 10
14.34041666308176
 20
-160.8278610709043
 30
0.0
 10
14.34041666308176
 20
-160.8278610709043
 30
0.0
 10
67.19358331653503
 20
-213.6774999465809
 30
0.0
 10
67.19358331653503
 20
-213.6774999465809
 30
0.0
 10
67.19358331653503
 20
-213.6774999465809
 30
0.0
 10
62.94966665092943
 20
-217.9214166121862
 30
0.0
 10
62.94966665092943
 20
-217.9214166121862
 30
0.0
 10
62.94966665092943
 20
-217.9214166121862
 30
0.0
 10
10.09649999747584
 20
-165.0682499587329
 30
0.0
 10
10.09649999747584
 20
-165.0682499587329
 30
0.0
 10
9.983611108615273
 20
-165.5233332919524
 30
0.0
 10
9.916583330854394
 20
-165.9960555140565
 30
0.0
 10
9.916583330854394
 20
-166.4864166250452
 30
0.0
 10
9.916583330854394
 20
-166.4864166250452
 30
0.0
 10
9.916583330854394
 20
-190.6446388412277
 30
0.0
 10
9.916583330854394
 20
-190.6446388412277
 30
0.0
 10
9.916583330854394
 20
-190.6446388412277
 30
0.0
 10
3.915833332354504
 20
-190.6446388412277
 30
0.0
 10
3.915833332354504
 20
-190.6446388412277
 30
0.0
 10
3.915833332354504
 20
-190.6446388412277
 30
0.0
 10
3.915833332354504
 20
-210.6436110584503
 30
0.0
 10
3.915833332354504
 20
-210.6436110584503
 30
0.0
 10
3.915833332354504
 20
-210.6436110584503
 30
0.0
 10
9.916583330854394
 20
-210.6436110584503
 30
0.0
 10
9.916583330854394
 20
-210.6436110584503
 30
0.0
 10
9.916583330854394
 20
-210.6436110584503
 30
0.0
 10
9.916583330854394
 20
-260.6463332681718
 30
0.0
 10
9.916583330854394
 20
-260.6463332681718
 30
0.0
 10
9.916583330854394
 20
-260.6463332681718
 30
0.0
 10
3.915833332354504
 20
-260.6463332681718
 30
0.0
 10
3.915833332354504
 20
-260.6463332681718
 30
0.0
 10
3.915833332354504
 20
-260.6463332681718
 30
0.0
 10
3.915833332354504
 20
-280.6453054853945
 30
0.0
 10
3.915833332354504
 20
-280.6453054853945
 30
0.0
 10
3.915833332354504
 20
-280.6453054853945
 30
0.0
 10
9.916583330854394
 20
-280.6453054853945
 30
0.0
 10
9.916583330854394
 20
-280.6453054853945
 30
0.0
 10
9.916583330854394
 20
-280.6453054853945
 30
0.0
 10
9.916583330854394
 20
-304.803527701577
 30
0.0
 10
9.916583330854394
 20
-304.803527701577
 30
0.0
 10
9.916583330854394
 20
-305.3256388125574
 30
0.0
 10
9.990666664168899
 20
-305.8301110346536
 30
0.0
 10
10.12119444191433
 20
-306.3134165900887
 30
0.0
 10
10.12119444191433
 20
-306.3134165900887
 30
0.0
 10
35.9833333243375
 20
-280.4512777076648
 30
0.0
 10
35.9833333243375
 20
-280.4512777076648
 30
0.0
 10
35.9833333243375
 20
-280.4512777076648
 30
0.0
 10
40.22372221216645
 20
-284.6916665954938
 30
0.0
 10
40.22372221216645
 20
-284.6916665954938
 30
0.0
 10
40.22372221216645
 20
-284.6916665954938
 30
0.0
 10
14.42861110750415
 20
-310.4867777001564
 30
0.0
 10
14.42861110750415
 20
-310.4867777001564
 30
0.0
 10
14.85899999628521
 20
-310.5855554779091
 30
0.0
 10
15.29997221839719
 20
-310.6455277001163
 30
0.0
 10
15.75858332939371
 20
-310.6455277001163
 30
0.0
 10
15.75858332939371
 20
-310.6455277001163
 30
0.0
 10
39.91680554557655
 20
-310.6455277001163
 30
0.0
 10
39.91680554557655
 20
-310.6455277001163
 30
0.0
 10
39.91680554557655
 20
-310.6455277001163
 30
0.0
 10
39.91680554557655
 20
-304.6447777016164
 30
0.0
 10
39.91680554557655
 20
-304.6447777016164
 30
0.0
 10
39.91680554557655
 20
-304.6447777016164
 30
0.0
 10
59.91577776279889
 20
-304.6447777016164
 30
0.0
 10
59.91577776279889
 20
-304.6447777016164
 30
0.0
 10
59.91577776279889
 20
-304.6447777016164
 30
0.0
 10
59.91577776279889
 20
-310.6455277001163
 30
0.0
 10
59.91577776279889
 20
-310.6455277001163
 30
0.0
 10
59.91577776279889
 20
-310.6455277001163
 30
0.0
 10
109.9149721947434
 20
-310.6455277001163
 30
0.0
 10
109.9149721947434
 20
-310.6455277001163
 30
0.0
 10
109.9149721947434
 20
-310.6455277001163
 30
0.0
 10
109.9149721947434
 20
-304.6447777016164
 30
0.0
 10
109.9149721947434
 20
-304.6447777016164
 30
0.0
 10
109.9149721947434
 20
-304.6447777016164
 30
0.0
 10
129.917472189743
 20
-304.6447777016164
 30
0.0
 10
129.917472189743
 20
-304.6447777016164
 30
0.0
 10
129.917472189743
 20
-304.6447777016164
 30
0.0
 10
129.917472189743
 20
-310.6455277001163
 30
0.0
 10
129.917472189743
 20
-310.6455277001163
 30
0.0
 10
129.917472189743
 20
-310.6455277001163
 30
0.0
 10
154.0721666281486
 20
-310.6455277001163
 30
0.0
 10
154.0721666281486
 20
-310.6455277001163
 30
0.0
 10
157.3000832940084
 20
-310.6455277001163
 30
0.0
 10
159.9176944044652
 20
-308.0279165896596
 30
0.0
 10
159.9176944044652
 20
-304.803527701577
 30
0.0
  0
POLYLINE
  5
146
330
49
100
AcDbEntity
  8
LAAG_1
 62
   250
100
AcDb2dPolyline
 66
     1
 10
0.0
 20
0.0
 30
0.0
  0
VERTEX
  5
147
330
146
100
AcDbEntity
  8
LAAG_1
 62
   250
100
AcDbVertex
100
AcDb2dVertex
 10
237.9168610516319
 20
-210.6436110584503
 30
0.0
  0
VERTEX
  5
148
330
146
100
AcDbEntity
  8
LAAG_1
 62
   250
100
AcDbVertex
100
AcDb2dVertex
 10
231.9161110531323
 20
-210.6436110584503
 30
0.0
  0
VERTEX
  5
149
330
146
100
AcDbEntity
  8
LAAG_1
 62
   250
100
AcDbVertex
100
AcDb2dVertex
 10
231.9161110531323
 20
-190.6446388412277
 30
0.0
  0
VERTEX
  5
14A
330
146
100
AcDbEntity
  8
LAAG_1
 62
   250
100
AcDbVertex
100
AcDb2dVertex
 10
237.9168610516319
 20
-190.6446388412277
 30
0.0
  0
VERTEX
  5
14B
330
146
100
AcDbEntity
  8
LAAG_1
 62
   250
100
AcDbVertex
100
AcDb2dVertex
 10
237.9168610516319
 20
-210.6436110584503
 30
0.0
  0
SEQEND
  5
14C
330
146
100
AcDbEntity
  8
LAAG_1
 62
   250
  0
POLYLINE
  5
14D
330
49
100
AcDbEntity
  8
LAAG_1
 62
   250
100
AcDb2dPolyline
 66
     1
 10
0.0
 20
0.0
 30
0.0
  0
VERTEX
  5
14E
330
14D
100
AcDbEntity
  8
LAAG_1
 62
   250
100
AcDbVertex
100
AcDb2dVertex
 10
237.9168610516319
 20
-280.6453054853945
 30
0.0
  0
VERTEX
  5
14F
330
14D
100
AcDbEntity
  8
LAAG_1
 62
   250
100
AcDbVertex
100
AcDb2dVertex
 10
231.9161110531323
 20
-280.6453054853945
 30
0.0
  0
VERTEX
  5
150
330
14D
100
AcDbEntity
  8
LAAG_1
 62
   250
100
AcDbVertex
100
AcDb2dVertex
 10
231.9161110531323
 20
-260.6463332681718
 30
0.0
  0
VERTEX
  5
151
330
14D
100
AcDbEntity
  8
LAAG_1
 62
   250
100
AcDbVertex
100
AcDb2dVertex
 10
237.9168610516319
 20
-260.6463332681718
 30
0.0
  0
VERTEX
  5
152
330
14D
100
AcDbEntity
  8
LAAG_1
 62
   250
100
AcDbVertex
100
AcDb2dVertex
 10
237.9168610516319
 20
-280.6453054853945
 30
0.0
  0
SEQEND
  5
153
330
14D
100
AcDbEntity
  8
LAAG_1
 62
   250
  0
POLYLINE
  5
154
330
49
100
AcDbEntity
  8
LAAG_1
 62
   250
100
AcDb2dPolyline
 66
     1
 10
0.0
 20
0.0
 30
0.0
  0
VERTEX
  5
155
330
154
100
AcDbEntity
  8
LAAG_1
 62
   250
100
AcDbVertex
100
AcDb2dVertex
 10
189.9179166191873
 20
-238.6435832736722
 30
0.0
  0
VERTEX
  5
156
330
154
100
AcDbEntity
  8
LAAG_1
 62
   250
100
AcDbVertex
100
AcDb2dVertex
 10
189.9179166191873
 20
-232.6463610529493
 30
0.0
  0
VERTEX
  5
157
330
154
100
AcDbEntity
  8
LAAG_1
 62
   250
100
AcDbVertex
100
AcDb2dVertex
 10
209.9168888364097
 20
-232.6463610529493
 30
0.0
  0
VERTEX
  5
158
330
154
100
AcDbEntity
  8
LAAG_1
 62
   250
100
AcDbVertex
100
AcDb2dVertex
 10
209.9168888364097
 20
-238.6435832736722
 30
0.0
  0
VERTEX
  5
159
330
154
100
AcDbEntity
  8
LAAG_1
 62
   250
100
AcDbVertex
100
AcDb2dVertex
 10
189.9179166191873
 20
-238.6435832736722
 30
0.0
  0
SEQEND
  5
15A
330
154
100
AcDbEntity
  8
LAAG_1
 62
   250
  0
POLYLINE
  5
15B
330
49
100
AcDbEntity
  8
LAAG_1
 62
   250
100
AcDb2dPolyline
 66
     1
 10
0.0
 20
0.0
 30
0.0
  0
VERTEX
  5
15C
330
15B
100
AcDbEntity
  8
LAAG_1
 62
   250
100
AcDbVertex
100
AcDb2dVertex
 10
309.915277700299
 20
-183.2151388430852
 30
0.0
  0
VERTEX
  5
15D
330
15B
100
AcDbEntity
  8
LAAG_1
 62
   250
100
AcDbVertex
100
AcDb2dVertex
 10
234.9147221634937
 20
-183.2151388430852
 30
0.0
  0
VERTEX
  5
15E
330
15B
100
AcDbEntity
  8
LAAG_1
 62
   250
100
AcDbVertex
100
AcDb2dVertex
 10
234.9147221634937
 20
-177.2143888445854
 30
0.0
  0
VERTEX
  5
15F
330
15B
100
AcDbEntity
  8
LAAG_1
 62
   250
100
AcDbVertex
100
AcDb2dVertex
 10
309.915277700299
 20
-177.2143888445854
 30
0.0
  0
SEQEND
  5
160
330
15B
100
AcDbEntity
  8
LAAG_1
 62
   250
  0
POLYLINE
  5
161
330
49
100
AcDbEntity
  8
LAAG_1
 62
   250
100
AcDb2dPolyline
 66
     1
 10
0.0
 20
0.0
 30
0.0
  0
VERTEX
  5
162
330
161
100
AcDbEntity
  8
LAAG_1
 62
   250
100
AcDbVertex
100
AcDb2dVertex
 10
309.915277700299
 20
-238.6435832736722
 30
0.0
  0
VERTEX
  5
163
330
161
100
AcDbEntity
  8
LAAG_1
 62
   250
100
AcDbVertex
100
AcDb2dVertex
 10
234.9147221634937
 20
-238.6435832736722
 30
0.0
  0
VERTEX
  5
164
330
161
100
AcDbEntity
  8
LAAG_1
 62
   250
100
AcDbVertex
100
AcDb2dVertex
 10
234.9147221634937
 20
-232.6463610529493
 30
0.0
  0
VERTEX
  5
165
330
161
100
AcDbEntity
  8
LAAG_1
 62
   250
100
AcDbVertex
100
AcDb2dVertex
 10
309.915277700299
 20
-232.6463610529493
 30
0.0
  0
SEQEND
  5
166
330
161
100
AcDbEntity
  8
LAAG_1
 62
   250
  0
POLYLINE
  5
167
330
49
100
AcDbEntity
  8
LAAG_1
 62
   250
100
AcDb2dPolyline
 66
     1
 10
0.0
 20
0.0
 30
0.0
  0
VERTEX
  5
168
330
167
100
AcDbEntity
  8
LAAG_1
 62
   250
100
AcDbVertex
100
AcDb2dVertex
 10
309.915277700299
 20
-294.0755554820368
 30
0.0
  0
VERTEX
  5
169
330
167
100
AcDbEntity
  8
LAAG_1
 62
   250
100
AcDbVertex
100
AcDb2dVertex
 10
234.9147221634937
 20
-294.0755554820368
 30
0.0
  0
VERTEX
  5
16A
330
167
100
AcDbEntity
  8
LAAG_1
 62
   250
100
AcDbVertex
100
AcDb2dVertex
 10
234.9147221634937
 20
-288.0748054835369
 30
0.0
  0
VERTEX
  5
16B
330
167
100
AcDbEntity
  8
LAAG_1
 62
   250
100
AcDbVertex
100
AcDb2dVertex
 10
309.915277700299
 20
-288.0748054835369
 30
0.0
  0
SEQEND
  5
16C
330
167
100
AcDbEntity
  8
LAAG_1
 62
   250
  0
SPLINE
  5
16D
330
49
100
AcDbEntity
  8
LAAG_1
 62
   250
100
AcDbSpline
210
0.0
220
0.0
230
1.0
 70
     8
 71
     3
 72
   152
 73
   148
 74
     0
 42
0.0000000001
 43
0.0000000001
 12
1.0
 22
0.0
 32
0.0
 13
1.0
 23
0.0
 33
0.0
 40
0.0
 40
0.0
 40
0.0
 40
0.0
 40
1.0
 40
1.0
 40
1.0
 40
2.0
 40
2.0
 40
2.0
 40
3.0
 40
3.0
 40
3.0
 40
4.0
 40
4.0
 40
4.0
 40
5.0
 40
5.0
 40
5.0
 40
6.0
 40
6.0
 40
6.0
 40
7.0
 40
7.0
 40
7.0
 40
8.0
 40
8.0
 40
8.0
 40
9.0
 40
9.0
 40
9.0
 40
10.0
 40
10.0
 40
10.0
 40
11.0
 40
11.0
 40
11.0
 40
12.0
 40
12.0
 40
12.0
 40
13.0
 40
13.0
 40
13.0
 40
14.0
 40
14.0
 40
14.0
 40
15.0
 40
15.0
 40
15.0
 40
16.0
 40
16.0
 40
16.0
 40
17.0
 40
17.0
 40
17.0
 40
18.0
 40
18.0
 40
18.0
 40
19.0
 40
19.0
 40
19.0
 40
20.0
 40
20.0
 40
20.0
 40
21.0
 40
21.0
 40
21.0
 40
22.0
 40
22.0
 40
22.0
 40
23.0
 40
23.0
 40
23.0
 40
24.0
 40
24.0
 40
24.0
 40
25.0
 40
25.0
 40
25.0
 40
26.0
 40
26.0
 40
26.0
 40
27.0
 40
27.0
 40
27.0
 40
28.0
 40
28.0
 40
28.0
 40
29.0
 40
29.0
 40
29.0
 40
30.0
 40
30.0
 40
30.0
 40
31.0
 40
31.0
 40
31.0
 40
32.0
 40
32.0
 40
32.0
 40
33.0
 40
33.0
 40
33.0
 40
34.0
 40
34.0
 40
34.0
 40
35.0
 40
35.0
 40
35.0
 40
36.0
 40
36.0
 40
36.0
 40
37.0
 40
37.0
 40
37.0
 40
38.0
 40
38.0
 40
38.0
 40
39.0
 40
39.0
 40
39.0
 40
40.0
 40
40.0
 40
40.0
 40
41.0
 40
41.0
 40
41.0
 40
42.0
 40
42.0
 40
42.0
 40
43.0
 40
43.0
 40
43.0
 40
44.0
 40
44.0
 40
44.0
 40
45.0
 40
45.0
 40
45.0
 40
46.0
 40
46.0
 40
46.0
 40
47.0
 40
47.0
 40
47.0
 40
48.0
 40
48.0
 40
48.0
 40
49.0
 40
49.0
 40
49.0
 40
49.0
 10
309.915277700299
 20
-166.4864166250452
 30
0.0
 10
309.915277700299
 20
-163.2620277369623
 30
0.0
 10
307.3011943676192
 20
-160.6444166265055
 30
0.0
 10
304.0732777017597
 20
-160.6444166265055
 30
0.0
 10
304.0732777017597
 20
-160.6444166265055
 30
0.0
 10
279.9150554855768
 20
-160.6444166265055
 30
0.0
 10
279.9150554855768
 20
-160.6444166265055
 30
0.0
 10
279.9150554855768
 20
-160.6444166265055
 30
0.0
 10
279.9150554855768
 20
-160.6408888487289
 30
0.0
 10
279.9150554855768
 20
-160.6408888487289
 30
0.0
 10
279.9150554855768
 20
-160.6408888487289
 30
0.0
 10
279.9150554855768
 20
-154.643666628006
 30
0.0
 10
279.9150554855768
 20
-154.643666628006
 30
0.0
 10
279.9150554855768
 20
-154.643666628006
 30
0.0
 10
259.9160832683545
 20
-154.643666628006
 30
0.0
 10
259.9160832683545
 20
-154.643666628006
 30
0.0
 10
259.9160832683545
 20
-154.643666628006
 30
0.0
 10
259.9160832683545
 20
-160.6408888487289
 30
0.0
 10
259.9160832683545
 20
-160.6408888487289
 30
0.0
 10
259.9160832683545
 20
-160.6408888487289
 30
0.0
 10
259.9160832683545
 20
-160.6444166265055
 30
0.0
 10
259.9160832683545
 20
-160.6444166265055
 30
0.0
 10
259.9160832683545
 20
-160.6444166265055
 30
0.0
 10
209.9168888364097
 20
-160.6444166265055
 30
0.0
 10
209.9168888364097
 20
-160.6444166265055
 30
0.0
 10
209.9168888364097
 20
-160.6444166265055
 30
0.0
 10
209.9168888364097
 20
-160.6408888487289
 30
0.0
 10
209.9168888364097
 20
-160.6408888487289
 30
0.0
 10
209.9168888364097
 20
-160.6408888487289
 30
0.0
 10
209.9168888364097
 20
-154.643666628006
 30
0.0
 10
209.9168888364097
 20
-154.643666628006
 30
0.0
 10
209.9168888364097
 20
-154.643666628006
 30
0.0
 10
189.9179166191873
 20
-154.643666628006
 30
0.0
 10
189.9179166191873
 20
-154.643666628006
 30
0.0
 10
189.9179166191873
 20
-154.643666628006
 30
0.0
 10
189.9179166191873
 20
-160.6408888487289
 30
0.0
 10
189.9179166191873
 20
-160.6408888487289
 30
0.0
 10
189.9179166191873
 20
-160.6408888487289
 30
0.0
 10
189.9179166191873
 20
-160.6444166265055
 30
0.0
 10
189.9179166191873
 20
-160.6444166265055
 30
0.0
 10
189.9179166191873
 20
-160.6444166265055
 30
0.0
 10
165.7596944030045
 20
-160.6444166265055
 30
0.0
 10
165.7596944030045
 20
-160.6444166265055
 30
0.0
 10
165.2693332920162
 20
-160.6444166265055
 30
0.0
 10
164.7966110699121
 20
-160.7114444042667
 30
0.0
 10
164.3415277366925
 20
-160.8278610709043
 30
0.0
 10
164.3415277366925
 20
-160.8278610709043
 30
0.0
 10
217.1911666123688
 20
-213.6774999465809
 30
0.0
 10
217.1911666123688
 20
-213.6774999465809
 30
0.0
 10
217.1911666123688
 20
-213.6774999465809
 30
0.0
 10
212.9507777245402
 20
-217.9214166121862
 30
0.0
 10
212.9507777245402
 20
-217.9214166121862
 30
0.0
 10
212.9507777245402
 20
-217.9214166121862
 30
0.0
 10
160.0976110710866
 20
-165.0682499587329
 30
0.0
 10
160.0976110710866
 20
-165.0682499587329
 30
0.0
 10
159.9847221822261
 20
-165.5233332919524
 30
0.0
 10
159.9176944044652
 20
-165.9960555140565
 30
0.0
 10
159.9176944044652
 20
-166.4864166250452
 30
0.0
 10
159.9176944044652
 20
-166.4864166250452
 30
0.0
 10
159.9176944044652
 20
-177.2143888445854
 30
0.0
 10
159.9176944044652
 20
-177.2143888445854
 30
0.0
 10
159.9176944044652
 20
-177.2143888445854
 30
0.0
 10
159.9176944044652
 20
-183.2151388430852
 30
0.0
 10
159.9176944044652
 20
-183.2151388430852
 30
0.0
 10
159.9176944044652
 20
-183.2151388430852
 30
0.0
 10
159.9176944044652
 20
-190.6446388412277
 30
0.0
 10
159.9176944044652
 20
-190.6446388412277
 30
0.0
 10
159.9176944044652
 20
-190.6446388412277
 30
0.0
 10
153.9169444059653
 20
-190.6446388412277
 30
0.0
 10
153.9169444059653
 20
-190.6446388412277
 30
0.0
 10
153.9169444059653
 20
-190.6446388412277
 30
0.0
 10
153.9169444059653
 20
-210.6436110584503
 30
0.0
 10
153.9169444059653
 20
-210.6436110584503
 30
0.0
 10
153.9169444059653
 20
-210.6436110584503
 30
0.0
 10
159.9176944044652
 20
-210.6436110584503
 30
0.0
 10
159.9176944044652
 20
-210.6436110584503
 30
0.0
 10
159.9176944044652
 20
-210.6436110584503
 30
0.0
 10
159.9176944044652
 20
-232.6463610529493
 30
0.0
 10
159.9176944044652
 20
-232.6463610529493
 30
0.0
 10
159.9176944044652
 20
-232.6463610529493
 30
0.0
 10
159.9176944044652
 20
-238.6435832736722
 30
0.0
 10
159.9176944044652
 20
-238.6435832736722
 30
0.0
 10
159.9176944044652
 20
-238.6435832736722
 30
0.0
 10
159.9176944044652
 20
-260.6463332681718
 30
0.0
 10
159.9176944044652
 20
-260.6463332681718
 30
0.0
 10
159.9176944044652
 20
-260.6463332681718
 30
0.0
 10
153.9169444059653
 20
-260.6463332681718
 30
0.0
 10
153.9169444059653
 20
-260.6463332681718
 30
0.0
 10
153.9169444059653
 20
-260.6463332681718
 30
0.0
 10
153.9169444059653
 20
-280.6453054853945
 30
0.0
 10
153.9169444059653
 20
-280.6453054853945
 30
0.0
 10
153.9169444059653
 20
-280.6453054853945
 30
0.0
 10
159.9176944044652
 20
-280.6453054853945
 30
0.0
 10
159.9176944044652
 20
-280.6453054853945
 30
0.0
 10
159.9176944044652
 20
-280.6453054853945
 30
0.0
 10
159.9176944044652
 20
-288.0748054835369
 30
0.0
 10
159.9176944044652
 20
-288.0748054835369
 30
0.0
 10
159.9176944044652
 20
-288.0748054835369
 30
0.0
 10
159.9176944044652
 20
-294.0755554820368
 30
0.0
 10
159.9176944044652
 20
-294.0755554820368
 30
0.0
 10
159.9176944044652
 20
-294.0755554820368
 30
0.0
 10
159.9176944044652
 20
-304.803527701577
 30
0.0
 10
159.9176944044652
 20
-304.803527701577
 30
0.0
 10
159.9176944044652
 20
-305.3256388125574
 30
0.0
 10
159.99177773778
 20
-305.8301110346536
 30
0.0
 10
160.1187777377481
 20
-306.3134165900887
 30
0.0
 10
160.1187777377481
 20
-306.3134165900887
 30
0.0
 10
185.9844443979483
 20
-280.4512777076648
 30
0.0
 10
185.9844443979483
 20
-280.4512777076648
 30
0.0
 10
185.9844443979483
 20
-280.4512777076648
 30
0.0
 10
190.2248332857772
 20
-284.6916665954938
 30
0.0
 10
190.2248332857772
 20
-284.6916665954938
 30
0.0
 10
190.2248332857772
 20
-284.6916665954938
 30
0.0
 10
164.4297221811149
 20
-310.4867777001564
 30
0.0
 10
164.4297221811149
 20
-310.4867777001564
 30
0.0
 10
164.8565832921193
 20
-310.5855554779091
 30
0.0
 10
165.301083292008
 20
-310.6455277001163
 30
0.0
 10
165.7596944030045
 20
-310.6455277001163
 30
0.0
 10
165.7596944030045
 20
-310.6455277001163
 30
0.0
 10
189.9179166191873
 20
-310.6455277001163
 30
0.0
 10
189.9179166191873
 20
-310.6455277001163
 30
0.0
 10
189.9179166191873
 20
-310.6455277001163
 30
0.0
 10
189.9179166191873
 20
-304.6447777016164
 30
0.0
 10
189.9179166191873
 20
-304.6447777016164
 30
0.0
 10
189.9179166191873
 20
-304.6447777016164
 30
0.0
 10
209.9168888364097
 20
-304.6447777016164
 30
0.0
 10
209.9168888364097
 20
-304.6447777016164
 30
0.0
 10
209.9168888364097
 20
-304.6447777016164
 30
0.0
 10
209.9168888364097
 20
-310.6455277001163
 30
0.0
 10
209.9168888364097
 20
-310.6455277001163
 30
0.0
 10
209.9168888364097
 20
-310.6455277001163
 30
0.0
 10
259.9160832683545
 20
-310.6455277001163
 30
0.0
 10
259.9160832683545
 20
-310.6455277001163
 30
0.0
 10
259.9160832683545
 20
-310.6455277001163
 30
0.0
 10
259.9160832683545
 20
-304.6447777016164
 30
0.0
 10
259.9160832683545
 20
-304.6447777016164
 30
0.0
 10
259.9160832683545
 20
-304.6447777016164
 30
0.0
 10
279.9150554855768
 20
-304.6447777016164
 30
0.0
 10
279.9150554855768
 20
-304.6447777016164
 30
0.0
 10
279.9150554855768
 20
-304.6447777016164
 30
0.0
 10
279.9150554855768
 20
-310.6455277001163
 30
0.0
 10
279.9150554855768
 20
-310.6455277001163
 30
0.0
 10
279.9150554855768
 20
-310.6455277001163
 30
0.0
 10
304.0732777017597
 20
-310.6455277001163
 30
0.0
 10
304.0732777017597
 20
-310.6455277001163
 30
0.0
 10
307.3011943676192
 20
-310.6455277001163
 30
0.0
 10
309.915277700299
 20
-308.0279165896596
 30
0.0
 10
309.915277700299
 20
-304.803527701577
 30
0.0
  0
POLYLINE
  5
16E
330
49
100
AcDbEntity
  8
LAAG_1
 62
   250
100
AcDb2dPolyline
 66
     1
 10
0.0
 20
0.0
 30
0.0
  0
VERTEX
  5
16F
330
16E
100
AcDbEntity
  8
LAAG_1
 62
   250
100
AcDbVertex
100
AcDb2dVertex
 10
387.917972125243
 20
-210.6436110584503
 30
0.0
  0
VERTEX
  5
170
330
16E
100
AcDbEntity
  8
LAAG_1
 62
   250
100
AcDbVertex
100
AcDb2dVertex
 10
381.9172221267431
 20
-210.6436110584503
 30
0.0
  0
VERTEX
  5
171
330
16E
100
AcDbEntity
  8
LAAG_1
 62
   250
100
AcDbVertex
100
AcDb2dVertex
 10
381.9172221267431
 20
-190.6446388412277
 30
0.0
  0
VERTEX
  5
172
330
16E
100
AcDbEntity
  8
LAAG_1
 62
   250
100
AcDbVertex
100
AcDb2dVertex
 10
387.917972125243
 20
-190.6446388412277
 30
0.0
  0
VERTEX
  5
173
330
16E
100
AcDbEntity
  8
LAAG_1
 62
   250
100
AcDbVertex
100
AcDb2dVertex
 10
387.917972125243
 20
-210.6436110584503
 30
0.0
  0
SEQEND
  5
174
330
16E
100
AcDbEntity
  8
LAAG_1
 62
   250
  0
POLYLINE
  5
175
330
49
100
AcDbEntity
  8
LAAG_1
 62
   250
100
AcDb2dPolyline
 66
     1
 10
0.0
 20
0.0
 30
0.0
  0
VERTEX
  5
176
330
175
100
AcDbEntity
  8
LAAG_1
 62
   250
100
AcDbVertex
100
AcDb2dVertex
 10
387.917972125243
 20
-280.6453054853945
 30
0.0
  0
VERTEX
  5
177
330
175
100
AcDbEntity
  8
LAAG_1
 62
   250
100
AcDbVertex
100
AcDb2dVertex
 10
381.9172221267431
 20
-280.6453054853945
 30
0.0
  0
VERTEX
  5
178
330
175
100
AcDbEntity
  8
LAAG_1
 62
   250
100
AcDbVertex
100
AcDb2dVertex
 10
381.9172221267431
 20
-260.6463332681718
 30
0.0
  0
VERTEX
  5
179
330
175
100
AcDbEntity
  8
LAAG_1
 62
   250
100
AcDbVertex
100
AcDb2dVertex
 10
387.917972125243
 20
-260.6463332681718
 30
0.0
  0
VERTEX
  5
17A
330
175
100
AcDbEntity
  8
LAAG_1
 62
   250
100
AcDbVertex
100
AcDb2dVertex
 10
387.917972125243
 20
-280.6453054853945
 30
0.0
  0
SEQEND
  5
17B
330
175
100
AcDbEntity
  8
LAAG_1
 62
   250
  0
POLYLINE
  5
17C
330
49
100
AcDbEntity
  8
LAAG_1
 62
   250
100
AcDb2dPolyline
 66
     1
 10
0.0
 20
0.0
 30
0.0
  0
VERTEX
  5
17D
330
17C
100
AcDbEntity
  8
LAAG_1
 62
   250
100
AcDbVertex
100
AcDb2dVertex
 10
339.9154999150211
 20
-238.6435832736722
 30
0.0
  0
VERTEX
  5
17E
330
17C
100
AcDbEntity
  8
LAAG_1
 62
   250
100
AcDbVertex
100
AcDb2dVertex
 10
339.9154999150211
 20
-232.6463610529493
 30
0.0
  0
VERTEX
  5
17F
330
17C
100
AcDbEntity
  8
LAAG_1
 62
   250
100
AcDbVertex
100
AcDb2dVertex
 10
359.9179999100205
 20
-232.6463610529493
 30
0.0
  0
VERTEX
  5
180
330
17C
100
AcDbEntity
  8
LAAG_1
 62
   250
100
AcDbVertex
100
AcDb2dVertex
 10
359.9179999100205
 20
-238.6435832736722
 30
0.0
  0
VERTEX
  5
181
330
17C
100
AcDbEntity
  8
LAAG_1
 62
   250
100
AcDbVertex
100
AcDb2dVertex
 10
339.9154999150211
 20
-238.6435832736722
 30
0.0
  0
SEQEND
  5
182
330
17C
100
AcDbEntity
  8
LAAG_1
 62
   250
  0
POLYLINE
  5
183
330
49
100
AcDbEntity
  8
LAAG_1
 62
   250
100
AcDb2dPolyline
 66
     1
 10
0.0
 20
0.0
 30
0.0
  0
VERTEX
  5
184
330
183
100
AcDbEntity
  8
LAAG_1
 62
   250
100
AcDbVertex
100
AcDb2dVertex
 10
459.9163887739101
 20
-183.2151388430852
 30
0.0
  0
VERTEX
  5
185
330
183
100
AcDbEntity
  8
LAAG_1
 62
   250
100
AcDbVertex
100
AcDb2dVertex
 10
384.9158332371045
 20
-183.2151388430852
 30
0.0
  0
VERTEX
  5
186
330
183
100
AcDbEntity
  8
LAAG_1
 62
   250
100
AcDbVertex
100
AcDb2dVertex
 10
384.9158332371045
 20
-177.2143888445854
 30
0.0
  0
VERTEX
  5
187
330
183
100
AcDbEntity
  8
LAAG_1
 62
   250
100
AcDbVertex
100
AcDb2dVertex
 10
459.9163887739101
 20
-177.2143888445854
 30
0.0
  0
SEQEND
  5
188
330
183
100
AcDbEntity
  8
LAAG_1
 62
   250
  0
POLYLINE
  5
189
330
49
100
AcDbEntity
  8
LAAG_1
 62
   250
100
AcDb2dPolyline
 66
     1
 10
0.0
 20
0.0
 30
0.0
  0
VERTEX
  5
18A
330
189
100
AcDbEntity
  8
LAAG_1
 62
   250
100
AcDbVertex
100
AcDb2dVertex
 10
459.9163887739101
 20
-238.6435832736722
 30
0.0
  0
VERTEX
  5
18B
330
189
100
AcDbEntity
  8
LAAG_1
 62
   250
100
AcDbVertex
100
AcDb2dVertex
 10
384.9158332371045
 20
-238.6435832736722
 30
0.0
  0
VERTEX
  5
18C
330
189
100
AcDbEntity
  8
LAAG_1
 62
   250
100
AcDbVertex
100
AcDb2dVertex
 10
384.9158332371045
 20
-232.6463610529493
 30
0.0
  0
VERTEX
  5
18D
330
189
100
AcDbEntity
  8
LAAG_1
 62
   250
100
AcDbVertex
100
AcDb2dVertex
 10
459.9163887739101
 20
-232.6463610529493
 30
0.0
  0
SEQEND
  5
18E
330
189
100
AcDbEntity
  8
LAAG_1
 62
   250
  0
POLYLINE
  5
18F
330
49
100
AcDbEntity
  8
LAAG_1
 62
   250
100
AcDb2dPolyline
 66
     1
 10
0.0
 20
0.0
 30
0.0
  0
VERTEX
  5
190
330
18F
100
AcDbEntity
  8
LAAG_1
 62
   250
100
AcDbVertex
100
AcDb2dVertex
 10
459.9163887739101
 20
-294.0755554820368
 30
0.0
  0
VERTEX
  5
191
330
18F
100
AcDbEntity
  8
LAAG_1
 62
   250
100
AcDbVertex
100
AcDb2dVertex
 10
384.9158332371045
 20
-294.0755554820368
 30
0.0
  0
VERTEX
  5
192
330
18F
100
AcDbEntity
  8
LAAG_1
 62
   250
100
AcDbVertex
100
AcDb2dVertex
 10
384.9158332371045
 20
-288.0748054835369
 30
0.0
  0
VERTEX
  5
193
330
18F
100
AcDbEntity
  8
LAAG_1
 62
   250
100
AcDbVertex
100
AcDb2dVertex
 10
459.9163887739101
 20
-288.0748054835369
 30
0.0
  0
SEQEND
  5
194
330
18F
100
AcDbEntity
  8
LAAG_1
 62
   250
  0
SPLINE
  5
195
330
49
100
AcDbEntity
  8
LAAG_1
 62
   250
100
AcDbSpline
210
0.0
220
0.0
230
1.0
 70
     8
 71
     3
 72
   152
 73
   148
 74
     0
 42
0.0000000001
 43
0.0000000001
 12
1.0
 22
0.0
 32
0.0
 13
1.0
 23
0.0
 33
0.0
 40
0.0
 40
0.0
 40
0.0
 40
0.0
 40
1.0
 40
1.0
 40
1.0
 40
2.0
 40
2.0
 40
2.0
 40
3.0
 40
3.0
 40
3.0
 40
4.0
 40
4.0
 40
4.0
 40
5.0
 40
5.0
 40
5.0
 40
6.0
 40
6.0
 40
6.0
 40
7.0
 40
7.0
 40
7.0
 40
8.0
 40
8.0
 40
8.0
 40
9.0
 40
9.0
 40
9.0
 40
10.0
 40
10.0
 40
10.0
 40
11.0
 40
11.0
 40
11.0
 40
12.0
 40
12.0
 40
12.0
 40
13.0
 40
13.0
 40
13.0
 40
14.0
 40
14.0
 40
14.0
 40
15.0
 40
15.0
 40
15.0
 40
16.0
 40
16.0
 40
16.0
 40
17.0
 40
17.0
 40
17.0
 40
18.0
 40
18.0
 40
18.0
 40
19.0
 40
19.0
 40
19.0
 40
20.0
 40
20.0
 40
20.0
 40
21.0
 40
21.0
 40
21.0
 40
22.0
 40
22.0
 40
22.0
 40
23.0
 40
23.0
 40
23.0
 40
24.0
 40
24.0
 40
24.0
 40
25.0
 40
25.0
 40
25.0
 40
26.0
 40
26.0
 40
26.0
 40
27.0
 40
27.0
 40
27.0
 40
28.0
 40
28.0
 40
28.0
 40
29.0
 40
29.0
 40
29.0
 40
30.0
 40
30.0
 40
30.0
 40
31.0
 40
31.0
 40
31.0
 40
32.0
 40
32.0
 40
32.0
 40
33.0
 40
33.0
 40
33.0
 40
34.0
 40
34.0
 40
34.0
 40
35.0
 40
35.0
 40
35.0
 40
36.0
 40
36.0
 40
36.0
 40
37.0
 40
37.0
 40
37.0
 40
38.0
 40
38.0
 40
38.0
 40
39.0
 40
39.0
 40
39.0
 40
40.0
 40
40.0
 40
40.0
 40
41.0
 40
41.0
 40
41.0
 40
42.0
 40
42.0
 40
42.0
 40
43.0
 40
43.0
 40
43.0
 40
44.0
 40
44.0
 40
44.0
 40
45.0
 40
45.0
 40
45.0
 40
46.0
 40
46.0
 40
46.0
 40
47.0
 40
47.0
 40
47.0
 40
48.0
 40
48.0
 40
48.0
 40
49.0
 40
49.0
 40
49.0
 40
49.0
 10
459.9163887739101
 20
-166.4864166250452
 30
0.0
 10
459.9163887739101
 20
-163.2620277369623
 30
0.0
 10
457.2987776634533
 20
-160.6444166265055
 30
0.0
 10
454.0743887753701
 20
-160.6444166265055
 30
0.0
 10
454.0743887753701
 20
-160.6444166265055
 30
0.0
 10
429.9161665591876
 20
-160.6444166265055
 30
0.0
 10
429.9161665591876
 20
-160.6444166265055
 30
0.0
 10
429.9161665591876
 20
-160.6444166265055
 30
0.0
 10
429.9161665591876
 20
-160.6408888487289
 30
0.0
 10
429.9161665591876
 20
-160.6408888487289
 30
0.0
 10
429.9161665591876
 20
-160.6408888487289
 30
0.0
 10
429.9161665591876
 20
-154.643666628006
 30
0.0
 10
429.9161665591876
 20
-154.643666628006
 30
0.0
 10
429.9161665591876
 20
-154.643666628006
 30
0.0
 10
409.9171943419649
 20
-154.643666628006
 30
0.0
 10
409.9171943419649
 20
-154.643666628006
 30
0.0
 10
409.9171943419649
 20
-154.643666628006
 30
0.0
 10
409.9171943419649
 20
-160.6408888487289
 30
0.0
 10
409.9171943419649
 20
-160.6408888487289
 30
0.0
 10
409.9171943419649
 20
-160.6408888487289
 30
0.0
 10
409.9171943419649
 20
-160.6444166265055
 30
0.0
 10
409.9171943419649
 20
-160.6444166265055
 30
0.0
 10
409.9171943419649
 20
-160.6444166265055
 30
0.0
 10
359.9179999100205
 20
-160.6444166265055
 30
0.0
 10
359.9179999100205
 20
-160.6444166265055
 30
0.0
 10
359.9179999100205
 20
-160.6444166265055
 30
0.0
 10
359.9179999100205
 20
-160.6408888487289
 30
0.0
 10
359.9179999100205
 20
-160.6408888487289
 30
0.0
 10
359.9179999100205
 20
-160.6408888487289
 30
0.0
 10
359.9179999100205
 20
-154.643666628006
 30
0.0
 10
359.9179999100205
 20
-154.643666628006
 30
0.0
 10
359.9179999100205
 20
-154.643666628006
 30
0.0
 10
339.9154999150211
 20
-154.643666628006
 30
0.0
 10
339.9154999150211
 20
-154.643666628006
 30
0.0
 10
339.9154999150211
 20
-154.643666628006
 30
0.0
 10
339.9154999150211
 20
-160.6408888487289
 30
0.0
 10
339.9154999150211
 20
-160.6408888487289
 30
0.0
 10
339.9154999150211
 20
-160.6408888487289
 30
0.0
 10
339.9154999150211
 20
-160.6444166265055
 30
0.0
 10
339.9154999150211
 20
-160.6444166265055
 30
0.0
 10
339.9154999150211
 20
-160.6444166265055
 30
0.0
 10
315.7572776988386
 20
-160.6444166265055
 30
0.0
 10
315.7572776988386
 20
-160.6444166265055
 30
0.0
 10
315.26691658785
 20
-160.6444166265055
 30
0.0
 10
314.7941943657459
 20
-160.7114444042667
 30
0.0
 10
314.3391110325263
 20
-160.8278610709043
 30
0.0
 10
314.3391110325263
 20
-160.8278610709043
 30
0.0
 10
367.1922776859799
 20
-213.6774999465809
 30
0.0
 10
367.1922776859799
 20
-213.6774999465809
 30
0.0
 10
367.1922776859799
 20
-213.6774999465809
 30
0.0
 10
362.948361020374
 20
-217.9214166121862
 30
0.0
 10
362.948361020374
 20
-217.9214166121862
 30
0.0
 10
362.948361020374
 20
-217.9214166121862
 30
0.0
 10
310.0987221446977
 20
-165.0682499587329
 30
0.0
 10
310.0987221446977
 20
-165.0682499587329
 30
0.0
 10
309.9823054780602
 20
-165.5233332919524
 30
0.0
 10
309.915277700299
 20
-165.9960555140565
 30
0.0
 10
309.915277700299
 20
-166.4864166250452
 30
0.0
 10
309.915277700299
 20
-166.4864166250452
 30
0.0
 10
309.915277700299
 20
-177.2143888445854
 30
0.0
 10
309.915277700299
 20
-177.2143888445854
 30
0.0
 10
309.915277700299
 20
-177.2143888445854
 30
0.0
 10
309.915277700299
 20
-183.2151388430852
 30
0.0
 10
309.915277700299
 20
-183.2151388430852
 30
0.0
 10
309.915277700299
 20
-183.2151388430852
 30
0.0
 10
309.915277700299
 20
-190.6446388412277
 30
0.0
 10
309.915277700299
 20
-190.6446388412277
 30
0.0
 10
309.915277700299
 20
-190.6446388412277
 30
0.0
 10
303.9180554795761
 20
-190.6446388412277
 30
0.0
 10
303.9180554795761
 20
-190.6446388412277
 30
0.0
 10
303.9180554795761
 20
-190.6446388412277
 30
0.0
 10
303.9180554795761
 20
-210.6436110584503
 30
0.0
 10
303.9180554795761
 20
-210.6436110584503
 30
0.0
 10
303.9180554795761
 20
-210.6436110584503
 30
0.0
 10
309.915277700299
 20
-210.6436110584503
 30
0.0
 10
309.915277700299
 20
-210.6436110584503
 30
0.0
 10
309.915277700299
 20
-210.6436110584503
 30
0.0
 10
309.915277700299
 20
-232.6463610529493
 30
0.0
 10
309.915277700299
 20
-232.6463610529493
 30
0.0
 10
309.915277700299
 20
-232.6463610529493
 30
0.0
 10
309.915277700299
 20
-238.6435832736722
 30
0.0
 10
309.915277700299
 20
-238.6435832736722
 30
0.0
 10
309.915277700299
 20
-238.6435832736722
 30
0.0
 10
309.915277700299
 20
-260.6463332681718
 30
0.0
 10
309.915277700299
 20
-260.6463332681718
 30
0.0
 10
309.915277700299
 20
-260.6463332681718
 30
0.0
 10
303.9180554795761
 20
-260.6463332681718
 30
0.0
 10
303.9180554795761
 20
-260.6463332681718
 30
0.0
 10
303.9180554795761
 20
-260.6463332681718
 30
0.0
 10
303.9180554795761
 20
-280.6453054853945
 30
0.0
 10
303.9180554795761
 20
-280.6453054853945
 30
0.0
 10
303.9180554795761
 20
-280.6453054853945
 30
0.0
 10
309.915277700299
 20
-280.6453054853945
 30
0.0
 10
309.915277700299
 20
-280.6453054853945
 30
0.0
 10
309.915277700299
 20
-280.6453054853945
 30
0.0
 10
309.915277700299
 20
-288.0748054835369
 30
0.0
 10
309.915277700299
 20
-288.0748054835369
 30
0.0
 10
309.915277700299
 20
-288.0748054835369
 30
0.0
 10
309.915277700299
 20
-294.0755554820368
 30
0.0
 10
309.915277700299
 20
-294.0755554820368
 30
0.0
 10
309.915277700299
 20
-294.0755554820368
 30
0.0
 10
309.915277700299
 20
-304.803527701577
 30
0.0
 10
309.915277700299
 20
-304.803527701577
 30
0.0
 10
309.915277700299
 20
-305.3256388125574
 30
0.0
 10
309.9928888113908
 20
-305.8301110346536
 30
0.0
 10
310.1198888113589
 20
-306.3134165900887
 30
0.0
 10
310.1198888113589
 20
-306.3134165900887
 30
0.0
 10
335.9820276937824
 20
-280.4512777076648
 30
0.0
 10
335.9820276937824
 20
-280.4512777076648
 30
0.0
 10
335.9820276937824
 20
-280.4512777076648
 30
0.0
 10
340.225944359388
 20
-284.6916665954938
 30
0.0
 10
340.225944359388
 20
-284.6916665954938
 30
0.0
 10
340.225944359388
 20
-284.6916665954938
 30
0.0
 10
314.4308332547257
 20
-310.4867777001564
 30
0.0
 10
314.4308332547257
 20
-310.4867777001564
 30
0.0
 10
314.8576943657301
 20
-310.5855554779091
 30
0.0
 10
315.3021943656191
 20
-310.6455277001163
 30
0.0
 10
315.7572776988386
 20
-310.6455277001163
 30
0.0
 10
315.7572776988386
 20
-310.6455277001163
 30
0.0
 10
339.9154999150211
 20
-310.6455277001163
 30
0.0
 10
339.9154999150211
 20
-310.6455277001163
 30
0.0
 10
339.9154999150211
 20
-310.6455277001163
 30
0.0
 10
339.9154999150211
 20
-304.6447777016164
 30
0.0
 10
339.9154999150211
 20
-304.6447777016164
 30
0.0
 10
339.9154999150211
 20
-304.6447777016164
 30
0.0
 10
359.9179999100205
 20
-304.6447777016164
 30
0.0
 10
359.9179999100205
 20
-304.6447777016164
 30
0.0
 10
359.9179999100205
 20
-304.6447777016164
 30
0.0
 10
359.9179999100205
 20
-310.6455277001163
 30
0.0
 10
359.9179999100205
 20
-310.6455277001163
 30
0.0
 10
359.9179999100205
 20
-310.6455277001163
 30
0.0
 10
409.9171943419649
 20
-310.6455277001163
 30
0.0
 10
409.9171943419649
 20
-310.6455277001163
 30
0.0
 10
409.9171943419649
 20
-310.6455277001163
 30
0.0
 10
409.9171943419649
 20
-304.6447777016164
 30
0.0
 10
409.9171943419649
 20
-304.6447777016164
 30
0.0
 10
409.9171943419649
 20
-304.6447777016164
 30
0.0
 10
429.9161665591876
 20
-304.6447777016164
 30
0.0
 10
429.9161665591876
 20
-304.6447777016164
 30
0.0
 10
429.9161665591876
 20
-304.6447777016164
 30
0.0
 10
429.9161665591876
 20
-310.6455277001163
 30
0.0
 10
429.9161665591876
 20
-310.6455277001163
 30
0.0
 10
429.9161665591876
 20
-310.6455277001163
 30
0.0
 10
454.0743887753701
 20
-310.6455277001163
 30
0.0
 10
454.0743887753701
 20
-310.6455277001163
 30
0.0
 10
457.2987776634533
 20
-310.6455277001163
 30
0.0
 10
459.9163887739101
 20
-308.0279165896596
 30
0.0
 10
459.9163887739101
 20
-304.803527701577
 30
0.0
  0
POLYLINE
  5
196
330
49
100
AcDbEntity
  8
LAAG_1
 62
   250
100
AcDb2dPolyline
 66
     1
 10
0.0
 20
0.0
 30
0.0
  0
VERTEX
  5
197
330
196
100
AcDbEntity
  8
LAAG_1
 62
   250
100
AcDbVertex
100
AcDb2dVertex
 10
537.9155554210764
 20
-210.6436110584503
 30
0.0
  0
VERTEX
  5
198
330
196
100
AcDbEntity
  8
LAAG_1
 62
   250
100
AcDbVertex
100
AcDb2dVertex
 10
531.9148054225772
 20
-210.6436110584503
 30
0.0
  0
VERTEX
  5
199
330
196
100
AcDbEntity
  8
LAAG_1
 62
   250
100
AcDbVertex
100
AcDb2dVertex
 10
531.9148054225772
 20
-190.6446388412277
 30
0.0
  0
VERTEX
  5
19A
330
196
100
AcDbEntity
  8
LAAG_1
 62
   250
100
AcDbVertex
100
AcDb2dVertex
 10
537.9155554210764
 20
-190.6446388412277
 30
0.0
  0
VERTEX
  5
19B
330
196
100
AcDbEntity
  8
LAAG_1
 62
   250
100
AcDbVertex
100
AcDb2dVertex
 10
537.9155554210764
 20
-210.6436110584503
 30
0.0
  0
SEQEND
  5
19C
330
196
100
AcDbEntity
  8
LAAG_1
 62
   250
  0
POLYLINE
  5
19D
330
49
100
AcDbEntity
  8
LAAG_1
 62
   250
100
AcDb2dPolyline
 66
     1
 10
0.0
 20
0.0
 30
0.0
  0
VERTEX
  5
19E
330
19D
100
AcDbEntity
  8
LAAG_1
 62
   250
100
AcDbVertex
100
AcDb2dVertex
 10
537.9155554210764
 20
-280.6453054853945
 30
0.0
  0
VERTEX
  5
19F
330
19D
100
AcDbEntity
  8
LAAG_1
 62
   250
100
AcDbVertex
100
AcDb2dVertex
 10
531.9148054225772
 20
-280.6453054853945
 30
0.0
  0
VERTEX
  5
1A0
330
19D
100
AcDbEntity
  8
LAAG_1
 62
   250
100
AcDbVertex
100
AcDb2dVertex
 10
531.9148054225772
 20
-260.6463332681718
 30
0.0
  0
VERTEX
  5
1A1
330
19D
100
AcDbEntity
  8
LAAG_1
 62
   250
100
AcDbVertex
100
AcDb2dVertex
 10
537.9155554210764
 20
-260.6463332681718
 30
0.0
  0
VERTEX
  5
1A2
330
19D
100
AcDbEntity
  8
LAAG_1
 62
   250
100
AcDbVertex
100
AcDb2dVertex
 10
537.9155554210764
 20
-280.6453054853945
 30
0.0
  0
SEQEND
  5
1A3
330
19D
100
AcDbEntity
  8
LAAG_1
 62
   250
  0
POLYLINE
  5
1A4
330
49
100
AcDbEntity
  8
LAAG_1
 62
   250
100
AcDb2dPolyline
 66
     1
 10
0.0
 20
0.0
 30
0.0
  0
VERTEX
  5
1A5
330
1A4
100
AcDbEntity
  8
LAAG_1
 62
   250
100
AcDbVertex
100
AcDb2dVertex
 10
489.9166109886319
 20
-238.6435832736722
 30
0.0
  0
VERTEX
  5
1A6
330
1A4
100
AcDbEntity
  8
LAAG_1
 62
   250
100
AcDbVertex
100
AcDb2dVertex
 10
489.9166109886319
 20
-232.6463610529493
 30
0.0
  0
VERTEX
  5
1A7
330
1A4
100
AcDbEntity
  8
LAAG_1
 62
   250
100
AcDbVertex
100
AcDb2dVertex
 10
509.9155832058545
 20
-232.6463610529493
 30
0.0
  0
VERTEX
  5
1A8
330
1A4
100
AcDbEntity
  8
LAAG_1
 62
   250
100
AcDbVertex
100
AcDb2dVertex
 10
509.9155832058545
 20
-238.6435832736722
 30
0.0
  0
VERTEX
  5
1A9
330
1A4
100
AcDbEntity
  8
LAAG_1
 62
   250
100
AcDbVertex
100
AcDb2dVertex
 10
489.9166109886319
 20
-238.6435832736722
 30
0.0
  0
SEQEND
  5
1AA
330
1A4
100
AcDbEntity
  8
LAAG_1
 62
   250
  0
SPLINE
  5
1AB
330
49
100
AcDbEntity
  8
LAAG_1
 62
   250
100
AcDbSpline
210
0.0
220
0.0
230
1.0
 70
    11
 71
     3
 72
   215
 73
   211
 74
     0
 42
0.0000000001
 43
0.0000000001
 12
1.0
 22
0.0
 32
0.0
 13
1.0
 23
0.0
 33
0.0
 40
0.0
 40
0.0
 40
0.0
 40
0.0
 40
1.0
 40
1.0
 40
1.0
 40
2.0
 40
2.0
 40
2.0
 40
3.0
 40
3.0
 40
3.0
 40
4.0
 40
4.0
 40
4.0
 40
5.0
 40
5.0
 40
5.0
 40
6.0
 40
6.0
 40
6.0
 40
7.0
 40
7.0
 40
7.0
 40
8.0
 40
8.0
 40
8.0
 40
9.0
 40
9.0
 40
9.0
 40
10.0
 40
10.0
 40
10.0
 40
11.0
 40
11.0
 40
11.0
 40
12.0
 40
12.0
 40
12.0
 40
13.0
 40
13.0
 40
13.0
 40
14.0
 40
14.0
 40
14.0
 40
15.0
 40
15.0
 40
15.0
 40
16.0
 40
16.0
 40
16.0
 40
17.0
 40
17.0
 40
17.0
 40
18.0
 40
18.0
 40
18.0
 40
19.0
 40
19.0
 40
19.0
 40
20.0
 40
20.0
 40
20.0
 40
21.0
 40
21.0
 40
21.0
 40
22.0
 40
22.0
 40
22.0
 40
23.0
 40
23.0
 40
23.0
 40
24.0
 40
24.0
 40
24.0
 40
25.0
 40
25.0
 40
25.0
 40
26.0
 40
26.0
 40
26.0
 40
27.0
 40
27.0
 40
27.0
 40
28.0
 40
28.0
 40
28.0
 40
29.0
 40
29.0
 40
29.0
 40
30.0
 40
30.0
 40
30.0
 40
31.0
 40
31.0
 40
31.0
 40
32.0
 40
32.0
 40
32.0
 40
33.0
 40
33.0
 40
33.0
 40
34.0
 40
34.0
 40
34.0
 40
35.0
 40
35.0
 40
35.0
 40
36.0
 40
36.0
 40
36.0
 40
37.0
 40
37.0
 40
37.0
 40
38.0
 40
38.0
 40
38.0
 40
39.0
 40
39.0
 40
39.0
 40
40.0
 40
40.0
 40
40.0
 40
41.0
 40
41.0
 40
41.0
 40
42.0
 40
42.0
 40
42.0
 40
43.0
 40
43.0
 40
43.0
 40
44.0
 40
44.0
 40
44.0
 40
45.0
 40
45.0
 40
45.0
 40
46.0
 40
46.0
 40
46.0
 40
47.0
 40
47.0
 40
47.0
 40
48.0
 40
48.0
 40
48.0
 40
49.0
 40
49.0
 40
49.0
 40
50.0
 40
50.0
 40
50.0
 40
51.0
 40
51.0
 40
51.0
 40
52.0
 40
52.0
 40
52.0
 40
53.0
 40
53.0
 40
53.0
 40
54.0
 40
54.0
 40
54.0
 40
55.0
 40
55.0
 40
55.0
 40
56.0
 40
56.0
 40
56.0
 40
57.0
 40
57.0
 40
57.0
 40
58.0
 40
58.0
 40
58.0
 40
59.0
 40
59.0
 40
59.0
 40
60.0
 40
60.0
 40
60.0
 40
61.0
 40
61.0
 40
61.0
 40
62.0
 40
62.0
 40
62.0
 40
63.0
 40
63.0
 40
63.0
 40
64.0
 40
64.0
 40
64.0
 40
65.0
 40
65.0
 40
65.0
 40
66.0
 40
66.0
 40
66.0
 40
67.0
 40
67.0
 40
67.0
 40
68.0
 40
68.0
 40
68.0
 40
69.0
 40
69.0
 40
69.0
 40
70.0
 40
70.0
 40
70.0
 40
70.0
 10
459.9163887739101
 20
-304.803527701577
 30
0.0
 10
459.9163887739101
 20
-305.3256388125574
 30
0.0
 10
459.9904721072245
 20
-305.8301110346536
 30
0.0
 10
460.12099988497
 20
-306.3134165900887
 30
0.0
 10
460.12099988497
 20
-306.3134165900887
 30
0.0
 10
485.9831387673932
 20
-280.4512777076648
 30
0.0
 10
485.9831387673932
 20
-280.4512777076648
 30
0.0
 10
485.9831387673932
 20
-280.4512777076648
 30
0.0
 10
490.2270554329991
 20
-284.6916665954938
 30
0.0
 10
490.2270554329991
 20
-284.6916665954938
 30
0.0
 10
490.2270554329991
 20
-284.6916665954938
 30
0.0
 10
464.4319443283365
 20
-310.4867777001564
 30
0.0
 10
464.4319443283365
 20
-310.4867777001564
 30
0.0
 10
464.8588054393412
 20
-310.5855554779091
 30
0.0
 10
465.2997776614532
 20
-310.6455277001163
 30
0.0
 10
465.7583887724494
 20
-310.6455277001163
 30
0.0
 10
465.7583887724494
 20
-310.6455277001163
 30
0.0
 10
489.9166109886319
 20
-310.6455277001163
 30
0.0
 10
489.9166109886319
 20
-310.6455277001163
 30
0.0
 10
489.9166109886319
 20
-310.6455277001163
 30
0.0
 10
489.9166109886319
 20
-304.6447777016164
 30
0.0
 10
489.9166109886319
 20
-304.6447777016164
 30
0.0
 10
489.9166109886319
 20
-304.6447777016164
 30
0.0
 10
509.9155832058545
 20
-304.6447777016164
 30
0.0
 10
509.9155832058545
 20
-304.6447777016164
 30
0.0
 10
509.9155832058545
 20
-304.6447777016164
 30
0.0
 10
509.9155832058545
 20
-310.6455277001163
 30
0.0
 10
509.9155832058545
 20
-310.6455277001163
 30
0.0
 10
509.9155832058545
 20
-310.6455277001163
 30
0.0
 10
559.914777637799
 20
-310.6455277001163
 30
0.0
 10
559.914777637799
 20
-310.6455277001163
 30
0.0
 10
559.914777637799
 20
-310.6455277001163
 30
0.0
 10
559.914777637799
 20
-304.6447777016164
 30
0.0
 10
559.914777637799
 20
-304.6447777016164
 30
0.0
 10
559.914777637799
 20
-304.6447777016164
 30
0.0
 10
579.9172776327987
 20
-304.6447777016164
 30
0.0
 10
579.9172776327987
 20
-304.6447777016164
 30
0.0
 10
579.9172776327987
 20
-304.6447777016164
 30
0.0
 10
579.9172776327987
 20
-310.6455277001163
 30
0.0
 10
579.9172776327987
 20
-310.6455277001163
 30
0.0
 10
579.9172776327987
 20
-310.6455277001163
 30
0.0
 10
604.0754998489812
 20
-310.6455277001163
 30
0.0
 10
604.0754998489812
 20
-310.6455277001163
 30
0.0
 10
607.2998887370638
 20
-310.6455277001163
 30
0.0
 10
609.9174998475205
 20
-308.0279165896596
 30
0.0
 10
609.9174998475205
 20
-304.803527701577
 30
0.0
 10
609.9174998475205
 20
-304.803527701577
 30
0.0
 10
609.9174998475205
 20
-294.0755554820368
 30
0.0
 10
609.9174998475205
 20
-294.0755554820368
 30
0.0
 10
609.9174998475205
 20
-294.0755554820368
 30
0.0
 10
534.9169443107149
 20
-294.0755554820368
 30
0.0
 10
534.9169443107149
 20
-294.0755554820368
 30
0.0
 10
534.9169443107149
 20
-294.0755554820368
 30
0.0
 10
534.9169443107149
 20
-288.0748054835369
 30
0.0
 10
534.9169443107149
 20
-288.0748054835369
 30
0.0
 10
534.9169443107149
 20
-288.0748054835369
 30
0.0
 10
609.9174998475205
 20
-288.0748054835369
 30
0.0
 10
609.9174998475205
 20
-288.0748054835369
 30
0.0
 10
609.9174998475205
 20
-288.0748054835369
 30
0.0
 10
609.9174998475205
 20
-280.6453054853945
 30
0.0
 10
609.9174998475205
 20
-280.6453054853945
 30
0.0
 10
609.9174998475205
 20
-280.6453054853945
 30
0.0
 10
603.9167498490207
 20
-280.6453054853945
 30
0.0
 10
603.9167498490207
 20
-280.6453054853945
 30
0.0
 10
603.9167498490207
 20
-280.6453054853945
 30
0.0
 10
603.9167498490207
 20
-260.6463332681718
 30
0.0
 10
603.9167498490207
 20
-260.6463332681718
 30
0.0
 10
603.9167498490207
 20
-260.6463332681718
 30
0.0
 10
609.9174998475205
 20
-260.6463332681718
 30
0.0
 10
609.9174998475205
 20
-260.6463332681718
 30
0.0
 10
609.9174998475205
 20
-260.6463332681718
 30
0.0
 10
609.9174998475205
 20
-238.6435832736722
 30
0.0
 10
609.9174998475205
 20
-238.6435832736722
 30
0.0
 10
609.9174998475205
 20
-238.6435832736722
 30
0.0
 10
534.9169443107149
 20
-238.6435832736722
 30
0.0
 10
534.9169443107149
 20
-238.6435832736722
 30
0.0
 10
534.9169443107149
 20
-238.6435832736722
 30
0.0
 10
534.9169443107149
 20
-232.6463610529493
 30
0.0
 10
534.9169443107149
 20
-232.6463610529493
 30
0.0
 10
534.9169443107149
 20
-232.6463610529493
 30
0.0
 10
609.9174998475205
 20
-232.6463610529493
 30
0.0
 10
609.9174998475205
 20
-232.6463610529493
 30
0.0
 10
609.9174998475205
 20
-232.6463610529493
 30
0.0
 10
609.9174998475205
 20
-210.6436110584503
 30
0.0
 10
609.9174998475205
 20
-210.6436110584503
 30
0.0
 10
609.9174998475205
 20
-210.6436110584503
 30
0.0
 10
603.9167498490207
 20
-210.6436110584503
 30
0.0
 10
603.9167498490207
 20
-210.6436110584503
 30
0.0
 10
603.9167498490207
 20
-210.6436110584503
 30
0.0
 10
603.9167498490207
 20
-190.6446388412277
 30
0.0
 10
603.9167498490207
 20
-190.6446388412277
 30
0.0
 10
603.9167498490207
 20
-190.6446388412277
 30
0.0
 10
609.9174998475205
 20
-190.6446388412277
 30
0.0
 10
609.9174998475205
 20
-190.6446388412277
 30
0.0
 10
609.9174998475205
 20
-190.6446388412277
 30
0.0
 10
609.9174998475205
 20
-183.2151388430852
 30
0.0
 10
609.9174998475205
 20
-183.2151388430852
 30
0.0
 10
609.9174998475205
 20
-183.2151388430852
 30
0.0
 10
534.9169443107149
 20
-183.2151388430852
 30
0.0
 10
534.9169443107149
 20
-183.2151388430852
 30
0.0
 10
534.9169443107149
 20
-183.2151388430852
 30
0.0
 10
534.9169443107149
 20
-177.2143888445854
 30
0.0
 10
534.9169443107149
 20
-177.2143888445854
 30
0.0
 10
534.9169443107149
 20
-177.2143888445854
 30
0.0
 10
609.9174998475205
 20
-177.2143888445854
 30
0.0
 10
609.9174998475205
 20
-177.2143888445854
 30
0.0
 10
609.9174998475205
 20
-177.2143888445854
 30
0.0
 10
609.9174998475205
 20
-166.4864166250452
 30
0.0
 10
609.9174998475205
 20
-166.4864166250452
 30
0.0
 10
609.9174998475205
 20
-163.2620277369623
 30
0.0
 10
607.2998887370638
 20
-160.6444166265055
 30
0.0
 10
604.0754998489812
 20
-160.6444166265055
 30
0.0
 10
604.0754998489812
 20
-160.6444166265055
 30
0.0
 10
579.9172776327987
 20
-160.6444166265055
 30
0.0
 10
579.9172776327987
 20
-160.6444166265055
 30
0.0
 10
579.9172776327987
 20
-160.6444166265055
 30
0.0
 10
579.9172776327987
 20
-160.6408888487289
 30
0.0
 10
579.9172776327987
 20
-160.6408888487289
 30
0.0
 10
579.9172776327987
 20
-160.6408888487289
 30
0.0
 10
579.9172776327987
 20
-154.643666628006
 30
0.0
 10
579.9172776327987
 20
-154.643666628006
 30
0.0
 10
579.9172776327987
 20
-154.643666628006
 30
0.0
 10
559.914777637799
 20
-154.643666628006
 30
0.0
 10
559.914777637799
 20
-154.643666628006
 30
0.0
 10
559.914777637799
 20
-154.643666628006
 30
0.0
 10
559.914777637799
 20
-160.6408888487289
 30
0.0
 10
559.914777637799
 20
-160.6408888487289
 30
0.0
 10
559.914777637799
 20
-160.6408888487289
 30
0.0
 10
559.914777637799
 20
-160.6444166265055
 30
0.0
 10
559.914777637799
 20
-160.6444166265055
 30
0.0
 10
559.914777637799
 20
-160.6444166265055
 30
0.0
 10
509.9155832058545
 20
-160.6444166265055
 30
0.0
 10
509.9155832058545
 20
-160.6444166265055
 30
0.0
 10
509.9155832058545
 20
-160.6444166265055
 30
0.0
 10
509.9155832058545
 20
-160.6408888487289
 30
0.0
 10
509.9155832058545
 20
-160.6408888487289
 30
0.0
 10
509.9155832058545
 20
-160.6408888487289
 30
0.0
 10
509.9155832058545
 20
-154.643666628006
 30
0.0
 10
509.9155832058545
 20
-154.643666628006
 30
0.0
 10
509.9155832058545
 20
-154.643666628006
 30
0.0
 10
489.9166109886319
 20
-154.643666628006
 30
0.0
 10
489.9166109886319
 20
-154.643666628006
 30
0.0
 10
489.9166109886319
 20
-154.643666628006
 30
0.0
 10
489.9166109886319
 20
-160.6408888487289
 30
0.0
 10
489.9166109886319
 20
-160.6408888487289
 30
0.0
 10
489.9166109886319
 20
-160.6408888487289
 30
0.0
 10
489.9166109886319
 20
-160.6444166265055
 30
0.0
 10
489.9166109886319
 20
-160.6444166265055
 30
0.0
 10
489.9166109886319
 20
-160.6444166265055
 30
0.0
 10
465.7583887724494
 20
-160.6444166265055
 30
0.0
 10
465.7583887724494
 20
-160.6444166265055
 30
0.0
 10
465.2680276614611
 20
-160.6444166265055
 30
0.0
 10
464.795305439357
 20
-160.7114444042667
 30
0.0
 10
464.3402221061371
 20
-160.8278610709043
 30
0.0
 10
464.3402221061371
 20
-160.8278610709043
 30
0.0
 10
517.1933887595903
 20
-213.6774999465809
 30
0.0
 10
517.1933887595903
 20
-213.6774999465809
 30
0.0
 10
517.1933887595903
 20
-213.6774999465809
 30
0.0
 10
512.9494720939852
 20
-217.9214166121862
 30
0.0
 10
512.9494720939852
 20
-217.9214166121862
 30
0.0
 10
512.9494720939852
 20
-217.9214166121862
 30
0.0
 10
460.0963054405318
 20
-165.0682499587329
 30
0.0
 10
460.0963054405318
 20
-165.0682499587329
 30
0.0
 10
459.9834165516706
 20
-165.5233332919524
 30
0.0
 10
459.9163887739101
 20
-165.9960555140565
 30
0.0
 10
459.9163887739101
 20
-166.4864166250452
 30
0.0
 10
459.9163887739101
 20
-166.4864166250452
 30
0.0
 10
459.9163887739101
 20
-177.2143888445854
 30
0.0
 10
459.9163887739101
 20
-177.2143888445854
 30
0.0
 10
459.9163887739101
 20
-177.2143888445854
 30
0.0
 10
459.9163887739101
 20
-183.2151388430852
 30
0.0
 10
459.9163887739101
 20
-183.2151388430852
 30
0.0
 10
459.9163887739101
 20
-183.2151388430852
 30
0.0
 10
459.9163887739101
 20
-190.6446388412277
 30
0.0
 10
459.9163887739101
 20
-190.6446388412277
 30
0.0
 10
459.9163887739101
 20
-190.6446388412277
 30
0.0
 10
453.9156387754102
 20
-190.6446388412277
 30
0.0
 10
453.9156387754102
 20
-190.6446388412277
 30
0.0
 10
453.9156387754102
 20
-190.6446388412277
 30
0.0
 10
453.9156387754102
 20
-210.6436110584503
 30
0.0
 10
453.9156387754102
 20
-210.6436110584503
 30
0.0
 10
453.9156387754102
 20
-210.6436110584503
 30
0.0
 10
459.9163887739101
 20
-210.6436110584503
 30
0.0
 10
459.9163887739101
 20
-210.6436110584503
 30
0.0
 10
459.9163887739101
 20
-210.6436110584503
 30
0.0
 10
459.9163887739101
 20
-232.6463610529493
 30
0.0
 10
459.9163887739101
 20
-232.6463610529493
 30
0.0
 10
459.9163887739101
 20
-232.6463610529493
 30
0.0
 10
459.9163887739101
 20
-238.6435832736722
 30
0.0
 10
459.9163887739101
 20
-238.6435832736722
 30
0.0
 10
459.9163887739101
 20
-238.6435832736722
 30
0.0
 10
459.9163887739101
 20
-260.6463332681718
 30
0.0
 10
459.9163887739101
 20
-260.6463332681718
 30
0.0
 10
459.9163887739101
 20
-260.6463332681718
 30
0.0
 10
453.9156387754102
 20
-260.6463332681718
 30
0.0
 10
453.9156387754102
 20
-260.6463332681718
 30
0.0
 10
453.9156387754102
 20
-260.6463332681718
 30
0.0
 10
453.9156387754102
 20
-280.6453054853945
 30
0.0
 10
453.9156387754102
 20
-280.6453054853945
 30
0.0
 10
453.9156387754102
 20
-280.6453054853945
 30
0.0
 10
459.9163887739101
 20
-280.6453054853945
 30
0.0
 10
459.9163887739101
 20
-280.6453054853945
 30
0.0
 10
459.9163887739101
 20
-280.6453054853945
 30
0.0
 10
459.9163887739101
 20
-288.0748054835369
 30
0.0
 10
459.9163887739101
 20
-288.0748054835369
 30
0.0
 10
459.9163887739101
 20
-288.0748054835369
 30
0.0
 10
459.9163887739101
 20
-294.0755554820368
 30
0.0
 10
459.9163887739101
 20
-294.0755554820368
 30
0.0
 10
459.9163887739101
 20
-294.0755554820368
 30
0.0
 10
459.9163887739101
 20
-304.803527701577
 30
0.0
 10
459.9163887739101
 20
-304.803527701577
 30
0.0
  0
ENDBLK
  5
4C
330
49
100
AcDbEntity
  8
0
100
AcDbBlockEnd
  0
ENDSEC
  0
SECTION
  2
ENTITIES
  0
INSERT
  5
42
330
1F
100
AcDbEntity
  8
LAAG_1
100
AcDbBlockReference
  2
BLOCK_2
 10
0.0
 20
0.0
 30
0.0
  0
ENDSEC
  0
SECTION
  2
OBJECTS
  0
DICTIONARY
  5
C
330
0
100
AcDbDictionary
  3
ACAD_GROUP
350
D
  3
ACAD_LAYOUT
350
1A
  3
ACAD_MATERIAL
350
3B
  3
ACAD_MLEADERSTYLE
350
1CE
  3
ACAD_MLINESTYLE
350
17
  3
ACAD_PLOTSETTINGS
350
19
  3
ACAD_VISUALSTYLE
350
2A
  3
ACDBHEADERROUNDTRIPXREC
350
1AC
  3
ACDBVARIABLEDICTIONARY
350
1CC
  0
DICTIONARY
  5
D
102
{ACAD_REACTORS
330
C
102
}
330
C
100
AcDbDictionary
  0
DICTIONARY
  5
1A
102
{ACAD_REACTORS
330
C
102
}
330
C
100
AcDbDictionary
  0
DICTIONARY
  5
3B
102
{ACAD_REACTORS
330
C
102
}
330
C
100
AcDbDictionary
  3
BYBLOCK
350
3D
  3
BYLAYER
350
3C
  3
GLOBAL
350
3E
  0
DICTIONARY
  5
1CE
102
{ACAD_REACTORS
330
C
102
}
330
C
100
AcDbDictionary
  0
DICTIONARY
  5
17
102
{ACAD_REACTORS
330
C
102
}
330
C
100
AcDbDictionary
  3
STANDARD
350
18
  0
DICTIONARY
  5
19
102
{ACAD_REACTORS
330
C
102
}
330
C
100
AcDbDictionary
  0
DICTIONARY
  5
2A
102
{ACAD_REACTORS
330
C
102
}
330
C
100
AcDbDictionary
  3
2DWIREFRAME
350
2F
  3
3DWIREFRAME
350
30
  3
3D_HIDDEN
350
31
  3
BASIC
350
32
  3
BRIGHTEN
350
36
  3
COLORCHANGE
350
3A
  3
CONCEPTUAL
350
34
  3
DIM
350
35
  3
FACEPATTERN
350
39
  3
FLAT
350
2B
  3
FLATWITHEDGES
350
2C
  3
GOURAUD
350
2D
  3
GOURAUDWITHEDGES
350
2E
  3
LINEPATTERN
350
38
  3
REALISTIC
350
33
  3
THICKEN
350
37
  0
DICTIONARY
  5
1AC
102
{ACAD_REACTORS
330
C
102
}
330
C
100
AcDbDictionary
  3
CEPSNTYPE
350
1B5
  3
DIMSTYLEDATA
350
1CB
  3
FINGERPRINTGUID
350
1B6
  3
HYPERLINKBASE
350
1AF
  3
INSUNITS
350
1B4
  3
LAYOUTDICT
350
1B1
  3
LWETCUNION
350
1B3
  3
PLOTSETDICT
350
1B2
  3
PSVPSCALE
350
1B8
  3
PUCSBASE
350
1BB
  3
PUCSORGBACK
350
1C1
  3
PUCSORGBOTTOM
350
1BD
  3
PUCSORGFRONT
350
1C0
  3
PUCSORGLEFT
350
1BE
  3
PUCSORGRIGHT
350
1BF
  3
PUCSORGTOP
350
1BC
  3
PUCSORTHOREF
350
1B9
  3
PUCSORTHOVIEW
350
1BA
  3
STYLESHEET
350
1B0
  3
TSTACKALIGN
350
1AD
  3
TSTACKSIZE
350
1AE
  3
UCSBASE
350
1C4
  3
UCSORGBACK
350
1CA
  3
UCSORGBOTTOM
350
1C6
  3
UCSORGFRONT
350
1C9
  3
UCSORGLEFT
350
1C7
  3
UCSORGRIGHT
350
1C8
  3
UCSORGTOP
350
1C5
  3
UCSORTHOREF
350
1C2
  3
UCSORTHOVIEW
350
1C3
  3
VERSIONGUID
350
1B7
  0
DICTIONARY
  5
1CC
102
{ACAD_REACTORS
330
C
102
}
330
C
100
AcDbDictionary
  3
DIMASSOC
350
1CF
  3
HIDETEXT
350
1D0
  0
MATERIAL
  5
3D
102
{ACAD_REACTORS
330
3B
102
}
102
{ACAD_XDICTIONARY
360
1D3
102
}
330
3B
100
AcDbMaterial
  1
ByBlock
  0
MATERIAL
  5
3C
102
{ACAD_REACTORS
330
3B
102
}
102
{ACAD_XDICTIONARY
360
1D1
102
}
330
3B
100
AcDbMaterial
  1
ByLayer
  0
MATERIAL
  5
3E
102
{ACAD_REACTORS
330
3B
102
}
102
{ACAD_XDICTIONARY
360
1D5
102
}
330
3B
100
AcDbMaterial
  1
Global
  0
MLINESTYLE
  5
18
102
{ACAD_REACTORS
330
17
102
}
330
17
100
AcDbMlineStyle
  2
Standard
 70
     0
  3

 62
   256
 51
90.0
 52
90.0
 71
     2
 49
0.5
 62
   256
  6
BYLAYER
 49
-0.5
 62
   256
  6
BYLAYER
  0
ACAD_PROXY_OBJECT
  5
2F
102
{ACAD_REACTORS
330
2A
102
}
330
2A
100
AcDbProxyObject
 90
      499
 91
      501
 93
      436
310
42CC9915DA5C99599C985B595049028333333333333E3BF0000000000000FB0107901411070040501600405405064090741402480A0340
1001
ACAD
1000
AcDbSavedByObjectVersion
1070
     0
  0
ACAD_PROXY_OBJECT
  5
30
102
{ACAD_REACTORS
330
2A
102
}
330
2A
100
AcDbProxyObject
 90
      499
 91
      501
 93
      436
310
42CCD915DA5C99599C985B595059028333333333333E3BF0000000000000FB0107901411070040501600405405064090741402480A0340
1001
ACAD
1000
AcDbSavedByObjectVersion
1070
     0
  0
ACAD_PROXY_OBJECT
  5
31
102
{ACAD_REACTORS
330
2A
102
}
330
2A
100
AcDbProxyObject
 90
      499
 91
      501
 93
      500
310
424CD108121A5919195B90640502408333333333333E3BF0000000000000FB01079024090700405020000000000001110200405405064090740C02480A0340
1001
ACAD
1000
AcDbSavedByObjectVersion
1070
     0
  0
ACAD_PROXY_OBJECT
  5
32
102
{ACAD_REACTORS
330
2A
102
}
330
2A
100
AcDbProxyObject
 90
      499
 91
      501
 93
      388
310
4150985CDA58D07406404333333333333E3BF0000000000000FB0107A41107004050150841D405064090741402480A0350
1001
ACAD
1000
AcDbSavedByObjectVersion
1070
     0
  0
ACAD_PROXY_OBJECT
  5
36
102
{ACAD_REACTORS
330
2A
102
}
330
2A
100
AcDbProxyObject
 90
      499
 91
      501
 93
      428
310
42109C9A59DA1D195B90C409028333333333333E3BF0000000000000FB010790141107004050150841D405064090741402480A029950
1001
ACAD
1000
AcDbSavedByObjectVersion
1070
     0
  0
ACAD_PROXY_OBJECT
  5
3A
102
{ACAD_REACTORS
330
2A
102
}
330
2A
100
AcDbProxyObject
 90
      499
 91
      501
 93
      452
310
42D0DBDB1BDC90DA185B99D95104090240C333333333333E3BF0000000000000FB0108901411070040501508421405064090741402480A0350
1001
ACAD
1000
AcDbSavedByObjectVersion
1070
     0
  0
ACAD_PROXY_OBJECT
  5
34
102
{ACAD_REACTORS
330
2A
102
}
330
2A
100
AcDbProxyObject
 90
      499
 91
      501
 93
      500
310
4290DBDB98D95C1D1D585B10940D028333333333333E3BF0000000000000FB0107902409070040501000000000000111010841D405064090740C02480A0340
1001
ACAD
1000
AcDbSavedByObjectVersion
1070
     0
  0
ACAD_PROXY_OBJECT
  5
35
102
{ACAD_REACTORS
330
2A
102
}
330
2A
100
AcDbProxyObject
 90
      499
 91
      501
 93
      412
310
40D11A5B50B409028333333333333E3BF0000000000000FB010790141107004050150841D405064090741402480A02677FFFFFD0
1001
ACAD
1000
AcDbSavedByObjectVersion
1070
     0
  0
ACAD_PROXY_OBJECT
  5
39
102
{ACAD_REACTORS
330
2A
102
}
330
2A
100
AcDbProxyObject
 90
      499
 91
      501
 93
      444
310
42D19858D95C185D1D195C9B90F409028333333333333E3BF0000000000000FB010790141107004050150841D405064090741402480A0350
1001
ACAD
1000
AcDbSavedByObjectVersion
1070
     0
  0
ACAD_PROXY_OBJECT
  5
2B
102
{ACAD_REACTORS
330
2A
102
}
330
2A
100
AcDbProxyObject
 90
      499
 91
      501
 93
      388
310
41119B185D240901404333333333333E3BF0000000000000F9010740A41107004050150841D405064090741402480A1B50
1001
ACAD
1000
AcDbSavedByObjectVersion
1070
     0
  0
ACAD_PROXY_OBJECT
  5
2C
102
{ACAD_REACTORS
330
2A
102
}
330
2A
100
AcDbProxyObject
 90
      499
 91
      501
 93
      476
310
43519B185D15DA5D1A115919D95CD0140901404333333333333E3BF0000000000000F9010740901411070040501600405405064090741402480A1B50
1001
ACAD
1000
AcDbSavedByObjectVersion
1070
     0
  0
ACAD_PROXY_OBJECT
  5
2D
102
{ACAD_REACTORS
330
2A
102
}
330
2A
100
AcDbProxyObject
 90
      499
 91
      501
 93
      412
310
41D1DBDD5C985D5910240902404333333333333E3BF0000000000000F9010740A411070040501641D405064090741402480A1B50
1001
ACAD
1000
AcDbSavedByObjectVersion
1070
     0
  0
ACAD_PROXY_OBJECT
  5
2E
102
{ACAD_REACTORS
330
2A
102
}
330
2A
100
AcDbProxyObject
 90
      499
 91
      501
 93
      500
310
4411DBDD5C985D5915DA5D1A115919D95CD0340902404333333333333E3BF0000000000000F9010740901411070040501600405405064090741402480A1B50
1001
ACAD
1000
AcDbSavedByObjectVersion
1070
     0
  0
ACAD_PROXY_OBJECT
  5
38
102
{ACAD_REACTORS
330
2A
102
}
330
2A
100
AcDbProxyObject
 90
      499
 91
      501
 93
      444
310
42D31A5B995C185D1D195C9B90E409028333333333333E3BF0000000000000FB010790141107004050750841D405064090741402483A0350
1001
ACAD
1000
AcDbSavedByObjectVersion
1070
     0
  0
ACAD_PROXY_OBJECT
  5
33
102
{ACAD_REACTORS
330
2A
102
}
330
2A
100
AcDbProxyObject
 90
      499
 91
      501
 93
      420
310
425499585B1A5CDD1A58D08409028333333333333E3BF0000000000000FB01079019070040501508421405064090741402480A1B40
1001
ACAD
1000
AcDbSavedByObjectVersion
1070
     0
  0
ACAD_PROXY_OBJECT
  5
37
102
{ACAD_REACTORS
330
2A
102
}
330
2A
100
AcDbProxyObject
 90
      499
 91
      501
 93
      412
310
41D51A1A58DAD95B90D409028333333333333E3BF0000000000000FB010790141107004050150C41D405064090741402480A0350
1001
ACAD
1000
AcDbSavedByObjectVersion
1070
     0
  0
XRECORD
  5
1B5
102
{ACAD_REACTORS
330
1AC
102
}
330
1AC
100
AcDbXrecord
 90
        0
  0
XRECORD
  5
1CB
102
{ACAD_REACTORS
330
1AC
102
}
330
1AC
100
AcDbXrecord
1000
DSTYLE
1002
{
1070
   340
340
11
1002
}
  0
XRECORD
  5
1B6
102
{ACAD_REACTORS
330
1AC
102
}
330
1AC
100
AcDbXrecord
  1
{FA3C0BDD-6164-8F9F-15B2-F97E8121CA96}
  0
XRECORD
  5
1AF
102
{ACAD_REACTORS
330
1AC
102
}
330
1AC
100
AcDbXrecord
  1

  0
XRECORD
  5
1B4
102
{ACAD_REACTORS
330
1AC
102
}
330
1AC
100
AcDbXrecord
 90
        4
  0
XRECORD
  5
1B1
102
{ACAD_REACTORS
330
1AC
102
}
330
1AC
100
AcDbXrecord
340
1A
  0
XRECORD
  5
1B3
102
{ACAD_REACTORS
330
1AC
102
}
330
1AC
100
AcDbXrecord
 90
    10269
  0
XRECORD
  5
1B2
102
{ACAD_REACTORS
330
1AC
102
}
330
1AC
100
AcDbXrecord
340
19
  0
XRECORD
  5
1B8
102
{ACAD_REACTORS
330
1AC
102
}
330
1AC
100
AcDbXrecord
 40
0.0
  0
XRECORD
  5
1BB
102
{ACAD_REACTORS
330
1AC
102
}
330
1AC
100
AcDbXrecord
340
0
  0
XRECORD
  5
1C1
102
{ACAD_REACTORS
330
1AC
102
}
330
1AC
100
AcDbXrecord
 10
0.0
 20
0.0
 30
0.0
  0
XRECORD
  5
1BD
102
{ACAD_REACTORS
330
1AC
102
}
330
1AC
100
AcDbXrecord
 10
0.0
 20
0.0
 30
0.0
  0
XRECORD
  5
1C0
102
{ACAD_REACTORS
330
1AC
102
}
330
1AC
100
AcDbXrecord
 10
0.0
 20
0.0
 30
0.0
  0
XRECORD
  5
1BE
102
{ACAD_REACTORS
330
1AC
102
}
330
1AC
100
AcDbXrecord
 10
0.0
 20
0.0
 30
0.0
  0
XRECORD
  5
1BF
102
{ACAD_REACTORS
330
1AC
102
}
330
1AC
100
AcDbXrecord
 10
0.0
 20
0.0
 30
0.0
  0
XRECORD
  5
1BC
102
{ACAD_REACTORS
330
1AC
102
}
330
1AC
100
AcDbXrecord
 10
0.0
 20
0.0
 30
0.0
  0
XRECORD
  5
1B9
102
{ACAD_REACTORS
330
1AC
102
}
330
1AC
100
AcDbXrecord
340
0
  0
XRECORD
  5
1BA
102
{ACAD_REACTORS
330
1AC
102
}
330
1AC
100
AcDbXrecord
 70
     0
  0
XRECORD
  5
1B0
102
{ACAD_REACTORS
330
1AC
102
}
330
1AC
100
AcDbXrecord
  1

  0
XRECORD
  5
1AD
102
{ACAD_REACTORS
330
1AC
102
}
330
1AC
100
AcDbXrecord
 90
        1
  0
XRECORD
  5
1AE
102
{ACAD_REACTORS
330
1AC
102
}
330
1AC
100
AcDbXrecord
 90
       70
  0
XRECORD
  5
1C4
102
{ACAD_REACTORS
330
1AC
102
}
330
1AC
100
AcDbXrecord
340
0
  0
XRECORD
  5
1CA
102
{ACAD_REACTORS
330
1AC
102
}
330
1AC
100
AcDbXrecord
 10
0.0
 20
0.0
 30
0.0
  0
XRECORD
  5
1C6
102
{ACAD_REACTORS
330
1AC
102
}
330
1AC
100
AcDbXrecord
 10
0.0
 20
0.0
 30
0.0
  0
XRECORD
  5
1C9
102
{ACAD_REACTORS
330
1AC
102
}
330
1AC
100
AcDbXrecord
 10
0.0
 20
0.0
 30
0.0
  0
XRECORD
  5
1C7
102
{ACAD_REACTORS
330
1AC
102
}
330
1AC
100
AcDbXrecord
 10
0.0
 20
0.0
 30
0.0
  0
XRECORD
  5
1C8
102
{ACAD_REACTORS
330
1AC
102
}
330
1AC
100
AcDbXrecord
 10
0.0
 20
0.0
 30
0.0
  0
XRECORD
  5
1C5
102
{ACAD_REACTORS
330
1AC
102
}
330
1AC
100
AcDbXrecord
 10
0.0
 20
0.0
 30
0.0
  0
XRECORD
  5
1C2
102
{ACAD_REACTORS
330
1AC
102
}
330
1AC
100
AcDbXrecord
340
0
  0
XRECORD
  5
1C3
102
{ACAD_REACTORS
330
1AC
102
}
330
1AC
100
AcDbXrecord
 70
     0
  0
XRECORD
  5
1B7
102
{ACAD_REACTORS
330
1AC
102
}
330
1AC
100
AcDbXrecord
  1
{FAEB1C32-E019-11D5-929B-00C0DF256EC4}
  0
DICTIONARYVAR
  5
1CF
102
{ACAD_REACTORS
330
1CC
102
}
330
1CC
100
DictionaryVariables
280
     0
  1
2
  0
DICTIONARYVAR
  5
1D0
102
{ACAD_REACTORS
330
1CC
102
}
330
1CC
100
DictionaryVariables
280
     0
  1
1
  0
DICTIONARY
  5
1D3
330
3D
100
AcDbDictionary
280
     1
  3
ACAD_XREC_ROUNDTRIP
360
1D4
  0
DICTIONARY
  5
1D1
330
3C
100
AcDbDictionary
280
     1
  3
ACAD_XREC_ROUNDTRIP
360
1D2
  0
DICTIONARY
  5
1D5
330
3E
100
AcDbDictionary
280
     1
  3
ACAD_XREC_ROUNDTRIP
360
1D6
  0
XRECORD
  5
1D4
102
{ACAD_REACTORS
330
1D3
102
}
330
1D3
100
AcDbXrecord
102
MATERIAL
148
0.0
149
0.0
149
0.0
 93
        0
 94
      127
282
     0
 72
     1
 77
     1
171
     1
175
     1
179
     1
273
     0
  0
XRECORD
  5
1D2
102
{ACAD_REACTORS
330
1D1
102
}
330
1D1
100
AcDbXrecord
102
MATERIAL
148
0.0
149
0.0
149
0.0
 93
        0
 94
      127
282
     0
 72
     1
 77
     1
171
     1
175
     1
179
     1
273
     0
  0
XRECORD
  5
1D6
102
{ACAD_REACTORS
330
1D5
102
}
330
1D5
100
AcDbXrecord
102
MATERIAL
148
0.0
149
0.0
149
0.0
 93
        0
 94
      127
282
     0
 72
     1
 77
     1
171
     1
175
     1
179
     1
273
     0
  0
ENDSEC
  0
EOF
