  0
SECTION
  2
HEADER
  9
$ACADVER
  1
AC1021
  9
$ACADMAINTVER
 70
    25
  9
$DWGCODEPAGE
  3
UNDEFINED
  9
$INSBASE
 10
0.0
 20
0.0
 30
0.0
  9
$EXTMIN
 10
1.000000000000000E+20
 20
1.000000000000000E+20
 30
1.000000000000000E+20
  9
$EXTMAX
 10
-1.000000000000000E+20
 20
-1.000000000000000E+20
 30
-1.000000000000000E+20
  9
$LIMMIN
 10
0.0
 20
0.0
  9
$LIMMAX
 10
12.0
 20
9.0
  9
$ORTHOMODE
 70
     0
  9
$REGENMODE
 70
     1
  9
$FILLMODE
 70
     1
  9
$QTEXTMODE
 70
     0
  9
$MIRRTEXT
 70
     1
  9
$LTSCALE
 40
1.0
  9
$ATTMODE
 70
     1
  9
$TEXTSIZE
 40
0.2
  9
$TRACEWID
 40
0.05
  9
$TEXTSTYLE
  7
Standard
  9
$CLAYER
  8
0
  9
$CELTYPE
  6
ByLayer
  9
$CECOLOR
 62
   256
  9
$CELTSCALE
 40
1.0
  9
$DISPSILH
 70
     0
  9
$DIMSCALE
 40
1.0
  9
$DIMASZ
 40
0.18
  9
$DIMEXO
 40
0.0625
  9
$DIMDLI
 40
0.38
  9
$DIMRND
 40
0.0
  9
$DIMDLE
 40
0.0
  9
$DIMEXE
 40
0.18
  9
$DIMTP
 40
0.0
  9
$DIMTM
 40
0.0
  9
$DIMTXT
 40
0.18
  9
$DIMCEN
 40
0.09
  9
$DIMTSZ
 40
0.0
  9
$DIMTOL
 70
     0
  9
$DIMLIM
 70
     0
  9
$DIMTIH
 70
     1
  9
$DIMTOH
 70
     1
  9
$DIMSE1
 70
     0
  9
$DIMSE2
 70
     0
  9
$DIMTAD
 70
     0
  9
$DIMZIN
 70
     0
  9
$DIMBLK
  1

  9
$DIMASO
 70
     1
  9
$DIMSHO
 70
     1
  9
$DIMPOST
  1

  9
$DIMAPOST
  1

  9
$DIMALT
 70
     0
  9
$DIMALTD
 70
     2
  9
$DIMALTF
 40
25.4
  9
$DIMLFAC
 40
1.0
  9
$DIMTOFL
 70
     0
  9
$DIMTVP
 40
0.0
  9
$DIMTIX
 70
     0
  9
$DIMSOXD
 70
     0
  9
$DIMSAH
 70
     0
  9
$DIMBLK1
  1

  9
$DIMBLK2
  1

  9
$DIMSTYLE
  2
Standard
  9
$DIMCLRD
 70
     0
  9
$DIMCLRE
 70
     0
  9
$DIMCLRT
 70
     0
  9
$DIMTFAC
 40
1.0
  9
$DIMGAP
 40
0.09
  9
$DIMJUST
 70
     0
  9
$DIMSD1
 70
     0
  9
$DIMSD2
 70
     0
  9
$DIMTOLJ
 70
     1
  9
$DIMTZIN
 70
     0
  9
$DIMALTZ
 70
     0
  9
$DIMALTTZ
 70
     0
  9
$DIMUPT
 70
     0
  9
$DIMDEC
 70
     4
  9
$DIMTDEC
 70
     4
  9
$DIMALTU
 70
     2
  9
$DIMALTTD
 70
     2
  9
$DIMTXSTY
  7
Standard
  9
$DIMAUNIT
 70
     0
  9
$DIMADEC
 70
     0
  9
$DIMALTRND
 40
0.0
  9
$DIMAZIN
 70
     0
  9
$DIMDSEP
 70
    46
  9
$DIMATFIT
 70
     3
  9
$DIMFRAC
 70
     0
  9
$DIMLDRBLK
  1

  9
$DIMLUNIT
 70
     2
  9
$DIMLWD
 70
    -2
  9
$DIMLWE
 70
    -2
  9
$DIMTMOVE
 70
     0
  9
$DIMFXL
 40
1.0
  9
$DIMFXLON
 70
     0
  9
$DIMJOGANG
 40
0.7853981633974483
  9
$DIMTFILL
 70
     0
  9
$DIMTFILLCLR
 70
     0
  9
$DIMARCSYM
 70
     0
  9
$DIMLTYPE
  6

  9
$DIMLTEX1
  6

  9
$DIMLTEX2
  6

  9
$LUNITS
 70
     2
  9
$LUPREC
 70
     4
  9
$SKETCHINC
 40
0.1
  9
$FILLETRAD
 40
0.5
  9
$AUNITS
 70
     0
  9
$AUPREC
 70
     0
  9
$MENU
  1
.
  9
$ELEVATION
 40
0.0
  9
$PELEVATION
 40
0.0
  9
$THICKNESS
 40
0.0
  9
$LIMCHECK
 70
     0
  9
$CHAMFERA
 40
0.5
  9
$CHAMFERB
 40
0.5
  9
$CHAMFERC
 40
1.0
  9
$CHAMFERD
 40
0.0
  9
$SKPOLY
 70
     0
  9
$TDCREATE
 40
2458876.670011562
  9
$TDUCREATE
 40
2458876.628344907
  9
$TDUPDATE
 40
2458876.670011562
  9
$TDUUPDATE
 40
2458876.628344907
  9
$TDINDWG
 40
0.0000000116
  9
$TDUSRTIMER
 40
0.0000000116
  9
$USRTIMER
 70
     1
  9
$ANGBASE
 50
0.0
  9
$ANGDIR
 70
     0
  9
$PDMODE
 70
     0
  9
$PDSIZE
 40
0.0
  9
$PLINEWID
 40
0.0
  9
$SPLFRAME
 70
     0
  9
$SPLINETYPE
 70
     6
  9
$SPLINESEGS
 70
     8
  9
$HANDSEED
  5
21D
  9
$SURFTAB1
 70
     6
  9
$SURFTAB2
 70
     6
  9
$SURFTYPE
 70
     6
  9
$SURFU
 70
     6
  9
$SURFV
 70
     6
  9
$UCSBASE
  2

  9
$UCSNAME
  2

  9
$UCSORG
 10
0.0
 20
0.0
 30
0.0
  9
$UCSXDIR
 10
1.0
 20
0.0
 30
0.0
  9
$UCSYDIR
 10
0.0
 20
1.0
 30
0.0
  9
$UCSORTHOREF
  2

  9
$UCSORTHOVIEW
 70
     0
  9
$UCSORGTOP
 10
0.0
 20
0.0
 30
0.0
  9
$UCSORGBOTTOM
 10
0.0
 20
0.0
 30
0.0
  9
$UCSORGLEFT
 10
0.0
 20
0.0
 30
0.0
  9
$UCSORGRIGHT
 10
0.0
 20
0.0
 30
0.0
  9
$UCSORGFRONT
 10
0.0
 20
0.0
 30
0.0
  9
$UCSORGBACK
 10
0.0
 20
0.0
 30
0.0
  9
$PUCSBASE
  2

  9
$PUCSNAME
  2

  9
$PUCSORG
 10
0.0
 20
0.0
 30
0.0
  9
$PUCSXDIR
 10
1.0
 20
0.0
 30
0.0
  9
$PUCSYDIR
 10
0.0
 20
1.0
 30
0.0
  9
$PUCSORTHOREF
  2

  9
$PUCSORTHOVIEW
 70
     0
  9
$PUCSORGTOP
 10
0.0
 20
0.0
 30
0.0
  9
$PUCSORGBOTTOM
 10
0.0
 20
0.0
 30
0.0
  9
$PUCSORGLEFT
 10
0.0
 20
0.0
 30
0.0
  9
$PUCSORGRIGHT
 10
0.0
 20
0.0
 30
0.0
  9
$PUCSORGFRONT
 10
0.0
 20
0.0
 30
0.0
  9
$PUCSORGBACK
 10
0.0
 20
0.0
 30
0.0
  9
$USERI1
 70
     0
  9
$USERI2
 70
     0
  9
$USERI3
 70
     0
  9
$USERI4
 70
     0
  9
$USERI5
 70
     0
  9
$USERR1
 40
0.0
  9
$USERR2
 40
0.0
  9
$USERR3
 40
0.0
  9
$USERR4
 40
0.0
  9
$USERR5
 40
0.0
  9
$WORLDVIEW
 70
     1
  9
$SHADEDGE
 70
     3
  9
$SHADEDIF
 70
    70
  9
$TILEMODE
 70
     1
  9
$MAXACTVP
 70
    64
  9
$PINSBASE
 10
0.0
 20
0.0
 30
0.0
  9
$PLIMCHECK
 70
     0
  9
$PEXTMIN
 10
1.000000000000000E+20
 20
1.000000000000000E+20
 30
1.000000000000000E+20
  9
$PEXTMAX
 10
-1.000000000000000E+20
 20
-1.000000000000000E+20
 30
-1.000000000000000E+20
  9
$PLIMMIN
 10
0.0
 20
0.0
  9
$PLIMMAX
 10
12.0
 20
9.0
  9
$UNITMODE
 70
     0
  9
$VISRETAIN
 70
     1
  9
$PLINEGEN
 70
     0
  9
$PSLTSCALE
 70
     1
  9
$TREEDEPTH
 70
  3020
  9
$CMLSTYLE
  2
Standard
  9
$CMLJUST
 70
     0
  9
$CMLSCALE
 40
1.0
  9
$PROXYGRAPHICS
 70
     1
  9
$MEASUREMENT
 70
     0
  9
$CELWEIGHT
370
    -1
  9
$ENDCAPS
280
     0
  9
$JOINSTYLE
280
     0
  9
$LWDISPLAY
290
     1
  9
$INSUNITS
 70
     4
  9
$HYPERLINKBASE
  1

  9
$STYLESHEET
  1

  9
$XEDIT
290
     1
  9
$CEPSNTYPE
380
     0
  9
$PSTYLEMODE
290
     1
  9
$FINGERPRINTGUID
  2
{58E9C7A1-750D-BBE3-54B2-7E6582B50572}
  9
$VERSIONGUID
  2
{FAEB1C32-E019-11D5-929B-00C0DF256EC4}
  9
$EXTNAMES
290
     1
  9
$PSVPSCALE
 40
0.0
  9
$OLESTARTUP
290
     0
  9
$SORTENTS
280
   127
  9
$INDEXCTL
280
     0
  9
$HIDETEXT
280
     1
  9
$XCLIPFRAME
290
     0
  9
$HALOGAP
280
     0
  9
$OBSCOLOR
 70
   257
  9
$OBSLTYPE
280
     0
  9
$INTERSECTIONDISPLAY
280
     0
  9
$INTERSECTIONCOLOR
 70
   257
  9
$DIMASSOC
280
     2
  9
$PROJECTNAME
  1

  9
$CAMERADISPLAY
290
     0
  9
$LENSLENGTH
 40
50.0
  9
$CAMERAHEIGHT
 40
0.0
  9
$STEPSPERSEC
 40
2.0
  9
$STEPSIZE
 40
6.0
  9
$3DDWFPREC
 40
2.0
  9
$PSOLWIDTH
 40
0.25
  9
$PSOLHEIGHT
 40
4.0
  9
$LOFTANG1
 40
1.570796326794897
  9
$LOFTANG2
 40
1.570796326794897
  9
$LOFTMAG1
 40
0.0
  9
$LOFTMAG2
 40
0.0
  9
$LOFTPARAM
 70
     7
  9
$LOFTNORMALS
280
     1
  9
$LATITUDE
 40
37.795
  9
$LONGITUDE
 40
-122.394
  9
$NORTHDIRECTION
 40
0.0
  9
$TIMEZONE
 70
 -8000
  9
$LIGHTGLYPHDISPLAY
280
     1
  9
$TILEMODELIGHTSYNCH
280
     1
  9
$CMATERIAL
347
3C
  9
$SOLIDHIST
280
     1
  9
$SHOWHIST
280
     1
  9
$DWFFRAME
280
     2
  9
$DGNFRAME
280
     2
  9
$REALWORLDSCALE
290
     1
  9
$INTERFERECOLOR
 62
   256
  9
$CSHADOW
280
     0
  9
$SHADOWPLANELOCATION
 40
0.0
  0
ENDSEC
  0
SECTION
  2
CLASSES
  0
CLASS
  1
ACDBDICTIONARYWDFLT
  2
AcDbDictionaryWithDefault
  3
ObjectDBX Classes
 90
        0
 91
        4
280
     0
281
     0
  0
CLASS
  1
VISUALSTYLE
  2
AcDbVisualStyle
  3
ObjectDBX Classes
 90
     4095
 91
        4
280
     0
281
     0
  0
CLASS
  1
MATERIAL
  2
AcDbMaterial
  3
ObjectDBX Classes
 90
     1153
 91
        4
280
     0
281
     0
  0
CLASS
  1
SUN
  2
AcDbSun
  3
SCENEOE
 90
     1024
 91
        4
280
     0
281
     0
  0
ENDSEC
  0
SECTION
  2
TABLES
  0
TABLE
  2
VPORT
  5
8
330
0
100
AcDbSymbolTable
 70
     1
  0
VPORT
  5
29
330
8
100
AcDbSymbolTableRecord
100
AcDbViewportTableRecord
  2
*Active
 70
     0
 10
0.0
 20
0.0
 11
1.0
 21
1.0
 12
0.0
 22
0.0
 13
0.0
 23
0.0
 14
0.5
 24
0.5
 15
0.5
 25
0.5
 16
0.0
 26
0.0
 36
1.0
 17
99.99999997500582
 27
-99.99999997500582
 37
0.0
 40
199.9999999500116
 41
1.0
 42
50.0
 43
0.0
 44
0.0
 50
0.0
 51
0.0
 71
     0
 72
   100
 73
     1
 74
     3
 75
     0
 76
     0
 77
     0
 78
     0
281
     0
 65
     1
110
0.0
120
0.0
130
0.0
111
1.0
121
0.0
131
0.0
112
0.0
122
1.0
132
0.0
 79
     0
146
0.0
 60
     3
 61
     5
292
     1
282
     1
141
0.0
142
0.0
 63
   250
361
3F
  0
ENDTAB
  0
TABLE
  2
LTYPE
  5
5
330
0
100
AcDbSymbolTable
 70
     1
  0
LTYPE
  5
14
330
5
100
AcDbSymbolTableRecord
100
AcDbLinetypeTableRecord
  2
ByBlock
 70
     0
  3

 72
    65
 73
     0
 40
0.0
  0
LTYPE
  5
15
330
5
100
AcDbSymbolTableRecord
100
AcDbLinetypeTableRecord
  2
ByLayer
 70
     0
  3

 72
    65
 73
     0
 40
0.0
  0
LTYPE
  5
16
330
5
100
AcDbSymbolTableRecord
100
AcDbLinetypeTableRecord
  2
Continuous
 70
     0
  3
Solid line
 72
    65
 73
     0
 40
0.0
  0
ENDTAB
  0
TABLE
  2
LAYER
  5
2
330
0
100
AcDbSymbolTable
 70
     2
  0
LAYER
  5
10
330
2
100
AcDbSymbolTableRecord
100
AcDbLayerTableRecord
  2
0
 70
     0
 62
     7
  6
Continuous
370
    -3
390
F
347
3E
  0
LAYER
  5
40
330
2
100
AcDbSymbolTableRecord
100
AcDbLayerTableRecord
  2
Laag 1
 70
     0
 62
     7
  6
Continuous
370
    -3
390
F
347
3E
  0
ENDTAB
  0
TABLE
  2
STYLE
  5
3
330
0
100
AcDbSymbolTable
 70
     1
  0
STYLE
  5
11
330
3
100
AcDbSymbolTableRecord
100
AcDbTextStyleTableRecord
  2
Standard
 70
     0
 40
0.0
 41
1.0
 50
0.0
 71
     0
 42
0.2
  3
txt
  4

  0
ENDTAB
  0
TABLE
  2
VIEW
  5
6
330
0
100
AcDbSymbolTable
 70
     0
  0
ENDTAB
  0
TABLE
  2
UCS
  5
7
330
0
100
AcDbSymbolTable
 70
     0
  0
ENDTAB
  0
TABLE
  2
APPID
  5
9
330
0
100
AcDbSymbolTable
 70
     1
  0
APPID
  5
12
330
9
100
AcDbSymbolTableRecord
100
AcDbRegAppTableRecord
  2
ACAD
 70
     0
  0
ENDTAB
  0
TABLE
  2
DIMSTYLE
  5
A
330
0
100
AcDbSymbolTable
 70
     1
100
AcDbDimStyleTable
  0
DIMSTYLE
105
27
330
A
100
AcDbSymbolTableRecord
100
AcDbDimStyleTableRecord
  2
Standard
 70
     0
178
     0
340
11
  0
ENDTAB
  0
TABLE
  2
BLOCK_RECORD
  5
1
330
0
100
AcDbSymbolTable
 70
     1
  0
BLOCK_RECORD
  5
1F
330
1
100
AcDbSymbolTableRecord
100
AcDbBlockTableRecord
  2
*Model_Space
340
22
 70
     0
280
     1
281
     0
  0
BLOCK_RECORD
  5
1B
330
1
100
AcDbSymbolTableRecord
100
AcDbBlockTableRecord
  2
*Paper_Space
340
1E
 70
     0
280
     1
281
     0
  0
BLOCK_RECORD
  5
23
330
1
100
AcDbSymbolTableRecord
100
AcDbBlockTableRecord
  2
*Paper_Space0
340
26
 70
     0
280
     1
281
     0
  0
ENDTAB
  0
ENDSEC
  0
SECTION
  2
BLOCKS
  0
BLOCK
  5
20
330
1F
100
AcDbEntity
  8
0
100
AcDbBlockBegin
  2
*Model_Space
 70
     0
 10
0.0
 20
0.0
 30
0.0
  3
*Model_Space
  1

  0
ENDBLK
  5
21
330
1F
100
AcDbEntity
  8
0
100
AcDbBlockEnd
  0
BLOCK
  5
1C
330
1B
100
AcDbEntity
 67
     1
  8
0
100
AcDbBlockBegin
  2
*Paper_Space
 70
     0
 10
0.0
 20
0.0
 30
0.0
  3
*Paper_Space
  1

  0
ENDBLK
  5
1D
330
1B
100
AcDbEntity
 67
     1
  8
0
100
AcDbBlockEnd
  0
BLOCK
  5
24
330
23
100
AcDbEntity
  8
0
100
AcDbBlockBegin
  2
*Paper_Space0
 70
     0
 10
0.0
 20
0.0
 30
0.0
  3
*Paper_Space0
  1

  0
ENDBLK
  5
25
330
23
100
AcDbEntity
  8
0
100
AcDbBlockEnd
  0
ENDSEC
  0
SECTION
  2
ENTITIES
  0
POLYLINE
  5
41
330
1F
100
AcDbEntity
  8
Laag 1
 62
   250
370
     5
100
AcDb2dPolyline
 66
     1
 10
0.0
 20
0.0
 30
0.0
  0
VERTEX
  5
42
330
41
100
AcDbEntity
  8
Laag 1
 62
   250
370
     5
100
AcDbVertex
100
AcDb2dVertex
 10
12.92023575838785
 20
-26.08736752504107
 30
0.0
  0
VERTEX
  5
43
330
41
100
AcDbEntity
  8
Laag 1
 62
   250
370
     5
100
AcDbVertex
100
AcDb2dVertex
 10
12.53090687003934
 20
-26.08736752504107
 30
0.0
  0
VERTEX
  5
44
330
41
100
AcDbEntity
  8
Laag 1
 62
   250
370
     5
100
AcDbVertex
100
AcDb2dVertex
 10
12.53090687003934
 20
-21.08736752629093
 30
0.0
  0
VERTEX
  5
45
330
41
100
AcDbEntity
  8
Laag 1
 62
   250
370
     5
100
AcDbVertex
100
AcDb2dVertex
 10
12.92023575838785
 20
-21.08736752629093
 30
0.0
  0
SEQEND
  5
46
330
41
100
AcDbEntity
  8
Laag 1
 62
   250
370
     5
  0
POLYLINE
  5
47
330
1F
100
AcDbEntity
  8
Laag 1
 62
   250
370
     5
100
AcDb2dPolyline
 66
     1
 10
0.0
 20
0.0
 30
0.0
  0
VERTEX
  5
48
330
47
100
AcDbEntity
  8
Laag 1
 62
   250
370
     5
100
AcDbVertex
100
AcDb2dVertex
 10
27.69958223731176
 20
-26.08736752504107
 30
0.0
  0
VERTEX
  5
49
330
47
100
AcDbEntity
  8
Laag 1
 62
   250
370
     5
100
AcDbVertex
100
AcDb2dVertex
 10
13.53639950674941
 20
-26.08736752504107
 30
0.0
  0
SEQEND
  5
4A
330
47
100
AcDbEntity
  8
Laag 1
 62
   250
370
     5
  0
POLYLINE
  5
4B
330
1F
100
AcDbEntity
  8
Laag 1
 62
   250
370
     5
100
AcDb2dPolyline
 66
     1
 10
0.0
 20
0.0
 30
0.0
  0
VERTEX
  5
4C
330
4B
100
AcDbEntity
  8
Laag 1
 62
   250
370
     5
100
AcDbVertex
100
AcDb2dVertex
 10
41.26183240981741
 20
-26.08736752504107
 30
0.0
  0
VERTEX
  5
4D
330
4B
100
AcDbEntity
  8
Laag 1
 62
   250
370
     5
100
AcDbVertex
100
AcDb2dVertex
 10
28.41649846946536
 20
-26.08736752504107
 30
0.0
  0
SEQEND
  5
4E
330
4B
100
AcDbEntity
  8
Laag 1
 62
   250
370
     5
  0
POLYLINE
  5
4F
330
1F
100
AcDbEntity
  8
Laag 1
 62
   250
370
     5
100
AcDb2dPolyline
 66
     1
 10
0.0
 20
0.0
 30
0.0
  0
VERTEX
  5
50
330
4F
100
AcDbEntity
  8
Laag 1
 62
   250
370
     5
100
AcDbVertex
100
AcDb2dVertex
 10
41.93894970784712
 20
-21.08736752629093
 30
0.0
  0
VERTEX
  5
51
330
4F
100
AcDbEntity
  8
Laag 1
 62
   250
370
     5
100
AcDbVertex
100
AcDb2dVertex
 10
42.53090686253893
 20
-21.08736752629093
 30
0.0
  0
VERTEX
  5
52
330
4F
100
AcDbEntity
  8
Laag 1
 62
   250
370
     5
100
AcDbVertex
100
AcDb2dVertex
 10
42.53090686253893
 20
-26.08736752504107
 30
0.0
  0
VERTEX
  5
53
330
4F
100
AcDbEntity
  8
Laag 1
 62
   250
370
     5
100
AcDbVertex
100
AcDb2dVertex
 10
41.93894921280582
 20
-26.08736752504107
 30
0.0
  0
SEQEND
  5
54
330
4F
100
AcDbEntity
  8
Laag 1
 62
   250
370
     5
  0
POLYLINE
  5
55
330
1F
100
AcDbEntity
  8
Laag 1
 62
   250
370
     5
100
AcDb2dPolyline
 66
     1
 10
0.0
 20
0.0
 30
0.0
  0
VERTEX
  5
56
330
55
100
AcDbEntity
  8
Laag 1
 62
   250
370
     5
100
AcDbVertex
100
AcDb2dVertex
 10
28.41649961276225
 20
-21.08736752629093
 30
0.0
  0
VERTEX
  5
57
330
55
100
AcDbEntity
  8
Laag 1
 62
   250
370
     5
100
AcDbVertex
100
AcDb2dVertex
 10
41.26183275283795
 20
-21.08736752629093
 30
0.0
  0
SEQEND
  5
58
330
55
100
AcDbEntity
  8
Laag 1
 62
   250
370
     5
  0
POLYLINE
  5
59
330
1F
100
AcDbEntity
  8
Laag 1
 62
   250
370
     5
100
AcDb2dPolyline
 66
     1
 10
0.0
 20
0.0
 30
0.0
  0
VERTEX
  5
5A
330
59
100
AcDbEntity
  8
Laag 1
 62
   250
370
     5
100
AcDbVertex
100
AcDb2dVertex
 10
13.53639950674941
 20
-21.08736752629093
 30
0.0
  0
VERTEX
  5
5B
330
59
100
AcDbEntity
  8
Laag 1
 62
   250
370
     5
100
AcDbVertex
100
AcDb2dVertex
 10
27.69958103533342
 20
-21.08736752629093
 30
0.0
  0
SEQEND
  5
5C
330
59
100
AcDbEntity
  8
Laag 1
 62
   250
370
     5
  0
POLYLINE
  5
5D
330
1F
100
AcDbEntity
  8
Laag 1
 62
   250
370
     5
100
AcDb2dPolyline
 66
     1
 10
0.0
 20
0.0
 30
0.0
  0
VERTEX
  5
5E
330
5D
100
AcDbEntity
  8
Laag 1
 62
   250
370
     5
100
AcDbVertex
100
AcDb2dVertex
 10
20.03090943685726
 20
-37.18369051218201
 30
0.0
  0
VERTEX
  5
5F
330
5D
100
AcDbEntity
  8
Laag 1
 62
   250
370
     5
100
AcDbVertex
100
AcDb2dVertex
 10
12.53090687003934
 20
-37.18369051218201
 30
0.0
  0
VERTEX
  5
60
330
5D
100
AcDbEntity
  8
Laag 1
 62
   250
370
     5
100
AcDbVertex
100
AcDb2dVertex
 10
12.53090687003934
 20
-32.18369051343186
 30
0.0
  0
VERTEX
  5
61
330
5D
100
AcDbEntity
  8
Laag 1
 62
   250
370
     5
100
AcDbVertex
100
AcDb2dVertex
 10
20.03090919082888
 20
-32.18369051343186
 30
0.0
  0
SEQEND
  5
62
330
5D
100
AcDbEntity
  8
Laag 1
 62
   250
370
     5
  0
POLYLINE
  5
63
330
1F
100
AcDbEntity
  8
Laag 1
 62
   250
370
     5
100
AcDb2dPolyline
 66
     1
 10
0.0
 20
0.0
 30
0.0
  0
VERTEX
  5
64
330
63
100
AcDbEntity
  8
Laag 1
 62
   250
370
     5
100
AcDbVertex
100
AcDb2dVertex
 10
35.1930326082644
 20
-37.18369051218201
 30
0.0
  0
VERTEX
  5
65
330
63
100
AcDbEntity
  8
Laag 1
 62
   250
370
     5
100
AcDbVertex
100
AcDb2dVertex
 10
20.36825438427355
 20
-37.18369051218201
 30
0.0
  0
SEQEND
  5
66
330
63
100
AcDbEntity
  8
Laag 1
 62
   250
370
     5
  0
POLYLINE
  5
67
330
1F
100
AcDbEntity
  8
Laag 1
 62
   250
370
     5
100
AcDb2dPolyline
 66
     1
 10
0.0
 20
0.0
 30
0.0
  0
VERTEX
  5
68
330
67
100
AcDbEntity
  8
Laag 1
 62
   250
370
     5
100
AcDbVertex
100
AcDb2dVertex
 10
35.35515741256695
 20
-32.18369051343186
 30
0.0
  0
VERTEX
  5
69
330
67
100
AcDbEntity
  8
Laag 1
 62
   250
370
     5
100
AcDbVertex
100
AcDb2dVertex
 10
42.53090686253893
 20
-32.18369051343186
 30
0.0
  0
VERTEX
  5
6A
330
67
100
AcDbEntity
  8
Laag 1
 62
   250
370
     5
100
AcDbVertex
100
AcDb2dVertex
 10
42.53090686253893
 20
-37.18369051218201
 30
0.0
  0
VERTEX
  5
6B
330
67
100
AcDbEntity
  8
Laag 1
 62
   250
370
     5
100
AcDbVertex
100
AcDb2dVertex
 10
35.56014186346996
 20
-37.18369051218201
 30
0.0
  0
SEQEND
  5
6C
330
67
100
AcDbEntity
  8
Laag 1
 62
   250
370
     5
  0
POLYLINE
  5
6D
330
1F
100
AcDbEntity
  8
Laag 1
 62
   250
370
     5
100
AcDb2dPolyline
 66
     1
 10
0.0
 20
0.0
 30
0.0
  0
VERTEX
  5
6E
330
6D
100
AcDbEntity
  8
Laag 1
 62
   250
370
     5
100
AcDbVertex
100
AcDb2dVertex
 10
20.36825664867417
 20
-32.18369051343186
 30
0.0
  0
VERTEX
  5
6F
330
6D
100
AcDbEntity
  8
Laag 1
 62
   250
370
     5
100
AcDbVertex
100
AcDb2dVertex
 10
35.03090830642697
 20
-32.18369051343186
 30
0.0
  0
SEQEND
  5
70
330
6D
100
AcDbEntity
  8
Laag 1
 62
   250
370
     5
  0
POLYLINE
  5
71
330
1F
100
AcDbEntity
  8
Laag 1
 62
   250
370
     5
100
AcDb2dPolyline
 66
     1
 10
0.0
 20
0.0
 30
0.0
  0
VERTEX
  5
72
330
71
100
AcDbEntity
  8
Laag 1
 62
   250
370
     5
100
AcDbVertex
100
AcDb2dVertex
 10
25.03090686691374
 20
-17.63982365957651
 30
0.0
  0
VERTEX
  5
73
330
71
100
AcDbEntity
  8
Laag 1
 62
   250
370
     5
100
AcDbVertex
100
AcDb2dVertex
 10
25.03090686691374
 20
-14.63982366032655
 30
0.0
  0
VERTEX
  5
74
330
71
100
AcDbEntity
  8
Laag 1
 62
   250
370
     5
100
AcDbVertex
100
AcDb2dVertex
 10
30.03090686566389
 20
-14.63982366032655
 30
0.0
  0
VERTEX
  5
75
330
71
100
AcDbEntity
  8
Laag 1
 62
   250
370
     5
100
AcDbVertex
100
AcDb2dVertex
 10
30.03090686566389
 20
-17.63982365957651
 30
0.0
  0
VERTEX
  5
76
330
71
100
AcDbEntity
  8
Laag 1
 62
   250
370
     5
100
AcDbVertex
100
AcDb2dVertex
 10
25.03090686691374
 20
-17.63982365957651
 30
0.0
  0
SEQEND
  5
77
330
71
100
AcDbEntity
  8
Laag 1
 62
   250
370
     5
  0
POLYLINE
  5
78
330
1F
100
AcDbEntity
  8
Laag 1
 62
   250
370
     5
100
AcDb2dPolyline
 66
     1
 10
0.0
 20
0.0
 30
0.0
  0
VERTEX
  5
79
330
78
100
AcDbEntity
  8
Laag 1
 62
   250
370
     5
100
AcDbVertex
100
AcDb2dVertex
 10
25.03090686691374
 20
-43.75561636630443
 30
0.0
  0
VERTEX
  5
7A
330
78
100
AcDbEntity
  8
Laag 1
 62
   250
370
     5
100
AcDbVertex
100
AcDb2dVertex
 10
25.03090686691374
 20
-40.75561636705447
 30
0.0
  0
VERTEX
  5
7B
330
78
100
AcDbEntity
  8
Laag 1
 62
   250
370
     5
100
AcDbVertex
100
AcDb2dVertex
 10
30.03090686566389
 20
-40.75561636705447
 30
0.0
  0
VERTEX
  5
7C
330
78
100
AcDbEntity
  8
Laag 1
 62
   250
370
     5
100
AcDbVertex
100
AcDb2dVertex
 10
30.03090686566389
 20
-43.75561636630443
 30
0.0
  0
VERTEX
  5
7D
330
78
100
AcDbEntity
  8
Laag 1
 62
   250
370
     5
100
AcDbVertex
100
AcDb2dVertex
 10
25.03090686691374
 20
-43.75561636630443
 30
0.0
  0
SEQEND
  5
7E
330
78
100
AcDbEntity
  8
Laag 1
 62
   250
370
     5
  0
SPLINE
  5
7F
330
1F
100
AcDbEntity
  8
Laag 1
 62
   250
370
     5
100
AcDbSpline
210
0.0
220
0.0
230
1.0
 70
    11
 71
     3
 72
   101
 73
    97
 74
     0
 42
0.0000000001
 43
0.0000000001
 12
1.0
 22
0.0
 32
0.0
 13
1.0
 23
0.0
 33
0.0
 40
0.0
 40
0.0
 40
0.0
 40
0.0
 40
1.0
 40
1.0
 40
1.0
 40
2.0
 40
2.0
 40
2.0
 40
3.0
 40
3.0
 40
3.0
 40
4.0
 40
4.0
 40
4.0
 40
5.0
 40
5.0
 40
5.0
 40
6.0
 40
6.0
 40
6.0
 40
7.0
 40
7.0
 40
7.0
 40
8.0
 40
8.0
 40
8.0
 40
9.0
 40
9.0
 40
9.0
 40
10.0
 40
10.0
 40
10.0
 40
11.0
 40
11.0
 40
11.0
 40
12.0
 40
12.0
 40
12.0
 40
13.0
 40
13.0
 40
13.0
 40
14.0
 40
14.0
 40
14.0
 40
15.0
 40
15.0
 40
15.0
 40
16.0
 40
16.0
 40
16.0
 40
17.0
 40
17.0
 40
17.0
 40
18.0
 40
18.0
 40
18.0
 40
19.0
 40
19.0
 40
19.0
 40
20.0
 40
20.0
 40
20.0
 40
21.0
 40
21.0
 40
21.0
 40
22.0
 40
22.0
 40
22.0
 40
23.0
 40
23.0
 40
23.0
 40
24.0
 40
24.0
 40
24.0
 40
25.0
 40
25.0
 40
25.0
 40
26.0
 40
26.0
 40
26.0
 40
27.0
 40
27.0
 40
27.0
 40
28.0
 40
28.0
 40
28.0
 40
29.0
 40
29.0
 40
29.0
 40
30.0
 40
30.0
 40
30.0
 40
31.0
 40
31.0
 40
31.0
 40
32.0
 40
32.0
 40
32.0
 40
32.0
 10
37.54432659092883
 20
-40.82513737563807
 30
0.0
 10
37.54432659092883
 20
-40.82513737563807
 30
0.0
 10
39.66564413597142
 20
-38.70381983059549
 30
0.0
 10
39.66564413597142
 20
-38.70381983059549
 30
0.0
 10
39.66564413597142
 20
-38.70381983059549
 30
0.0
 10
49.54101034444008
 20
-48.57918603906414
 30
0.0
 10
49.54101034444008
 20
-48.57918603906414
 30
0.0
 10
49.85180102090318
 20
-47.92778307834374
 30
0.0
 10
50.03090292244261
 20
-47.20151388635951
 30
0.0
 10
50.03090292244261
 20
-46.43166423648687
 30
0.0
 10
50.03090292244261
 20
-46.43166423648687
 30
0.0
 10
50.03090292244261
 20
-30.63551386337428
 30
0.0
 10
50.03090292244261
 20
-30.63551386337428
 30
0.0
 10
50.03090292244261
 20
-30.63551386337428
 30
0.0
 10
35.03091411597125
 20
-30.63551386337428
 30
0.0
 10
35.03091411597125
 20
-30.63551386337428
 30
0.0
 10
35.03091411597125
 20
-30.63551386337428
 30
0.0
 10
35.03091411597125
 20
-27.63552471481872
 30
0.0
 10
35.03091411597125
 20
-27.63552471481872
 30
0.0
 10
35.03091411597125
 20
-27.63552471481872
 30
0.0
 10
50.03090292244261
 20
-27.63552471481872
 30
0.0
 10
50.03090292244261
 20
-27.63552471481872
 30
0.0
 10
50.03090292244261
 20
-27.63552471481872
 30
0.0
 10
50.03090292244261
 20
-11.43181954580107
 30
0.0
 10
50.03090292244261
 20
-11.43181954580107
 30
0.0
 10
50.03090292244261
 20
-10.64063183576666
 30
0.0
 10
49.84215475354448
 20
-9.89522083199251
 30
0.0
 10
49.51497834167967
 20
-9.23023127595216
 30
0.0
 10
49.51497834167967
 20
-9.23023127595216
 30
0.0
 10
39.66564413597142
 20
-19.07958701350718
 30
0.0
 10
39.66564413597142
 20
-19.07958701350718
 30
0.0
 10
39.66564413597142
 20
-19.07958701350718
 30
0.0
 10
37.54432659092883
 20
-16.9582694684646
 30
0.0
 10
37.54432659092883
 20
-16.9582694684646
 30
0.0
 10
37.54432659092883
 20
-16.9582694684646
 30
0.0
 10
47.44725356327949
 20
-7.055320964267155
 30
0.0
 10
47.44725356327949
 20
-7.055320964267155
 30
0.0
 10
46.73078136158176
 20
-6.658855069455248
 30
0.0
 10
45.90766192276844
 20
-6.431737149590152
 30
0.0
 10
45.03084205807847
 20
-6.431737149590152
 30
0.0
 10
45.03084205807847
 20
-6.431737149590152
 30
0.0
 10
10.03097583554589
 20
-6.431737149590152
 30
0.0
 10
10.03097583554589
 20
-6.431737149590152
 30
0.0
 10
7.269516485650313
 20
-6.431737149590152
 30
0.0
 10
5.030914971181752
 20
-8.670338664058713
 30
0.0
 10
5.030914971181752
 20
-11.43181954580107
 30
0.0
 10
5.030914971181752
 20
-11.43181954580107
 30
0.0
 10
5.030914971181752
 20
-14.63982786612537
 30
0.0
 10
5.030914971181752
 20
-14.63982786612537
 30
0.0
 10
5.030914971181752
 20
-14.63982786612537
 30
0.0
 10
20.03090377765311
 20
-14.63982786612537
 30
0.0
 10
20.03090377765311
 20
-14.63982786612537
 30
0.0
 10
20.03090377765311
 20
-14.63982786612537
 30
0.0
 10
20.03090377765311
 20
-17.63981701468093
 30
0.0
 10
20.03090377765311
 20
-17.63981701468093
 30
0.0
 10
20.03090377765311
 20
-17.63981701468093
 30
0.0
 10
5.030914971181752
 20
-17.63981701468093
 30
0.0
 10
5.030914971181752
 20
-17.63981701468093
 30
0.0
 10
5.030914971181752
 20
-17.63981701468093
 30
0.0
 10
5.030914971181752
 20
-27.79772411663364
 30
0.0
 10
5.030914971181752
 20
-27.79772411663364
 30
0.0
 10
5.030914971181752
 20
-27.79772411663364
 30
0.0
 10
20.03090377765311
 20
-27.79772411663364
 30
0.0
 10
20.03090377765311
 20
-27.79772411663364
 30
0.0
 10
20.03090377765311
 20
-27.79772411663364
 30
0.0
 10
20.03090377765311
 20
-30.59770394042366
 30
0.0
 10
20.03090377765311
 20
-30.59770394042366
 30
0.0
 10
20.03090377765311
 20
-30.59770394042366
 30
0.0
 10
5.030914971181752
 20
-30.59770394042366
 30
0.0
 10
5.030914971181752
 20
-30.59770394042366
 30
0.0
 10
5.030914971181752
 20
-30.59770394042366
 30
0.0
 10
5.030914971181752
 20
-41.00561731537159
 30
0.0
 10
5.030914971181752
 20
-41.00561731537159
 30
0.0
 10
5.030914971181752
 20
-41.00561731537159
 30
0.0
 10
20.03090377765311
 20
-41.00561731537159
 30
0.0
 10
20.03090377765311
 20
-41.00561731537159
 30
0.0
 10
20.03090377765311
 20
-41.00561731537159
 30
0.0
 10
20.03090377765311
 20
-43.50561544978349
 30
0.0
 10
20.03090377765311
 20
-43.50561544978349
 30
0.0
 10
20.03090377765311
 20
-43.50561544978349
 30
0.0
 10
5.030914971181752
 20
-43.50561544978349
 30
0.0
 10
5.030914971181752
 20
-43.50561544978349
 30
0.0
 10
5.030914971181752
 20
-43.50561544978349
 30
0.0
 10
5.030914971181752
 20
-46.43166423648687
 30
0.0
 10
5.030914971181752
 20
-46.43166423648687
 30
0.0
 10
5.030914971181752
 20
-49.19312358638245
 30
0.0
 10
7.269516485650313
 20
-51.43174663269779
 30
0.0
 10
10.03097583554589
 20
-51.43174663269779
 30
0.0
 10
10.03097583554589
 20
-51.43174663269779
 30
0.0
 10
45.03084205807847
 20
-51.43174663269779
 30
0.0
 10
45.03084205807847
 20
-51.43174663269779
 30
0.0
 10
45.9285047504542
 20
-51.43174663269779
 30
0.0
 10
46.76882813484666
 20
-51.19205411431153
 30
0.0
 10
47.49705672488846
 20
-50.77788904144415
 30
0.0
 10
47.49705672488846
 20
-50.77788904144415
 30
0.0
 10
37.54432659092883
 20
-40.82513737563807
 30
0.0
 10
37.54432659092883
 20
-40.82513737563807
 30
0.0
  0
POLYLINE
  5
80
330
1F
100
AcDbEntity
  8
Laag 1
 62
   250
370
     5
100
AcDb2dPolyline
 66
     1
 10
0.0
 20
0.0
 30
0.0
  0
VERTEX
  5
81
330
80
100
AcDbEntity
  8
Laag 1
 62
   250
370
     5
100
AcDbVertex
100
AcDb2dVertex
 10
60.84363422216843
 20
-21.08736752629093
 30
0.0
  0
VERTEX
  5
82
330
80
100
AcDbEntity
  8
Laag 1
 62
   250
370
     5
100
AcDbVertex
100
AcDb2dVertex
 10
90.84363421466803
 20
-21.08736752629093
 30
0.0
  0
VERTEX
  5
83
330
80
100
AcDbEntity
  8
Laag 1
 62
   250
370
     5
100
AcDbVertex
100
AcDb2dVertex
 10
90.84363421466803
 20
-26.08736752504107
 30
0.0
  0
VERTEX
  5
84
330
80
100
AcDbEntity
  8
Laag 1
 62
   250
370
     5
100
AcDbVertex
100
AcDb2dVertex
 10
60.84363422216843
 20
-26.08736752504107
 30
0.0
  0
VERTEX
  5
85
330
80
100
AcDbEntity
  8
Laag 1
 62
   250
370
     5
100
AcDbVertex
100
AcDb2dVertex
 10
60.84363422216843
 20
-21.08736752629093
 30
0.0
  0
SEQEND
  5
86
330
80
100
AcDbEntity
  8
Laag 1
 62
   250
370
     5
  0
POLYLINE
  5
87
330
1F
100
AcDbEntity
  8
Laag 1
 62
   250
370
     5
100
AcDb2dPolyline
 66
     1
 10
0.0
 20
0.0
 30
0.0
  0
VERTEX
  5
88
330
87
100
AcDbEntity
  8
Laag 1
 62
   250
370
     5
100
AcDbVertex
100
AcDb2dVertex
 10
68.34363678898636
 20
-37.18369051218201
 30
0.0
  0
VERTEX
  5
89
330
87
100
AcDbEntity
  8
Laag 1
 62
   250
370
     5
100
AcDbVertex
100
AcDb2dVertex
 10
60.84363422216843
 20
-37.18369051218201
 30
0.0
  0
VERTEX
  5
8A
330
87
100
AcDbEntity
  8
Laag 1
 62
   250
370
     5
100
AcDbVertex
100
AcDb2dVertex
 10
60.84363422216843
 20
-32.18369051343186
 30
0.0
  0
VERTEX
  5
8B
330
87
100
AcDbEntity
  8
Laag 1
 62
   250
370
     5
100
AcDbVertex
100
AcDb2dVertex
 10
68.34363654295798
 20
-32.18369051343186
 30
0.0
  0
SEQEND
  5
8C
330
87
100
AcDbEntity
  8
Laag 1
 62
   250
370
     5
  0
POLYLINE
  5
8D
330
1F
100
AcDbEntity
  8
Laag 1
 62
   250
370
     5
100
AcDb2dPolyline
 66
     1
 10
0.0
 20
0.0
 30
0.0
  0
VERTEX
  5
8E
330
8D
100
AcDbEntity
  8
Laag 1
 62
   250
370
     5
100
AcDbVertex
100
AcDb2dVertex
 10
83.5057599603935
 20
-37.18369051218201
 30
0.0
  0
VERTEX
  5
8F
330
8D
100
AcDbEntity
  8
Laag 1
 62
   250
370
     5
100
AcDbVertex
100
AcDb2dVertex
 10
68.68098173640264
 20
-37.18369051218201
 30
0.0
  0
SEQEND
  5
90
330
8D
100
AcDbEntity
  8
Laag 1
 62
   250
370
     5
  0
POLYLINE
  5
91
330
1F
100
AcDbEntity
  8
Laag 1
 62
   250
370
     5
100
AcDb2dPolyline
 66
     1
 10
0.0
 20
0.0
 30
0.0
  0
VERTEX
  5
92
330
91
100
AcDbEntity
  8
Laag 1
 62
   250
370
     5
100
AcDbVertex
100
AcDb2dVertex
 10
83.66788476469605
 20
-32.18369051343186
 30
0.0
  0
VERTEX
  5
93
330
91
100
AcDbEntity
  8
Laag 1
 62
   250
370
     5
100
AcDbVertex
100
AcDb2dVertex
 10
90.84363421466803
 20
-32.18369051343186
 30
0.0
  0
VERTEX
  5
94
330
91
100
AcDbEntity
  8
Laag 1
 62
   250
370
     5
100
AcDbVertex
100
AcDb2dVertex
 10
90.84363421466803
 20
-37.18369051218201
 30
0.0
  0
VERTEX
  5
95
330
91
100
AcDbEntity
  8
Laag 1
 62
   250
370
     5
100
AcDbVertex
100
AcDb2dVertex
 10
83.87286921559905
 20
-37.18369051218201
 30
0.0
  0
SEQEND
  5
96
330
91
100
AcDbEntity
  8
Laag 1
 62
   250
370
     5
  0
POLYLINE
  5
97
330
1F
100
AcDbEntity
  8
Laag 1
 62
   250
370
     5
100
AcDb2dPolyline
 66
     1
 10
0.0
 20
0.0
 30
0.0
  0
VERTEX
  5
98
330
97
100
AcDbEntity
  8
Laag 1
 62
   250
370
     5
100
AcDbVertex
100
AcDb2dVertex
 10
68.68098400080326
 20
-32.18369051343186
 30
0.0
  0
VERTEX
  5
99
330
97
100
AcDbEntity
  8
Laag 1
 62
   250
370
     5
100
AcDbVertex
100
AcDb2dVertex
 10
83.34363565855638
 20
-32.18369051343186
 30
0.0
  0
SEQEND
  5
9A
330
97
100
AcDbEntity
  8
Laag 1
 62
   250
370
     5
  0
POLYLINE
  5
9B
330
1F
100
AcDbEntity
  8
Laag 1
 62
   250
370
     5
100
AcDb2dPolyline
 66
     1
 10
0.0
 20
0.0
 30
0.0
  0
VERTEX
  5
9C
330
9B
100
AcDbEntity
  8
Laag 1
 62
   250
370
     5
100
AcDbVertex
100
AcDb2dVertex
 10
73.34363421904284
 20
-17.63982365957651
 30
0.0
  0
VERTEX
  5
9D
330
9B
100
AcDbEntity
  8
Laag 1
 62
   250
370
     5
100
AcDbVertex
100
AcDb2dVertex
 10
73.34363421904284
 20
-14.63982366032655
 30
0.0
  0
VERTEX
  5
9E
330
9B
100
AcDbEntity
  8
Laag 1
 62
   250
370
     5
100
AcDbVertex
100
AcDb2dVertex
 10
78.34363421779298
 20
-14.63982366032655
 30
0.0
  0
VERTEX
  5
9F
330
9B
100
AcDbEntity
  8
Laag 1
 62
   250
370
     5
100
AcDbVertex
100
AcDb2dVertex
 10
78.34363421779298
 20
-17.63982365957651
 30
0.0
  0
VERTEX
  5
A0
330
9B
100
AcDbEntity
  8
Laag 1
 62
   250
370
     5
100
AcDbVertex
100
AcDb2dVertex
 10
73.34363421904284
 20
-17.63982365957651
 30
0.0
  0
SEQEND
  5
A1
330
9B
100
AcDbEntity
  8
Laag 1
 62
   250
370
     5
  0
POLYLINE
  5
A2
330
1F
100
AcDbEntity
  8
Laag 1
 62
   250
370
     5
100
AcDb2dPolyline
 66
     1
 10
0.0
 20
0.0
 30
0.0
  0
VERTEX
  5
A3
330
A2
100
AcDbEntity
  8
Laag 1
 62
   250
370
     5
100
AcDbVertex
100
AcDb2dVertex
 10
73.34363421904284
 20
-43.75561636630443
 30
0.0
  0
VERTEX
  5
A4
330
A2
100
AcDbEntity
  8
Laag 1
 62
   250
370
     5
100
AcDbVertex
100
AcDb2dVertex
 10
73.34363421904284
 20
-40.75561636705447
 30
0.0
  0
VERTEX
  5
A5
330
A2
100
AcDbEntity
  8
Laag 1
 62
   250
370
     5
100
AcDbVertex
100
AcDb2dVertex
 10
78.34363421779298
 20
-40.75561636705447
 30
0.0
  0
VERTEX
  5
A6
330
A2
100
AcDbEntity
  8
Laag 1
 62
   250
370
     5
100
AcDbVertex
100
AcDb2dVertex
 10
78.34363421779298
 20
-43.75561636630443
 30
0.0
  0
VERTEX
  5
A7
330
A2
100
AcDbEntity
  8
Laag 1
 62
   250
370
     5
100
AcDbVertex
100
AcDb2dVertex
 10
73.34363421904284
 20
-43.75561636630443
 30
0.0
  0
SEQEND
  5
A8
330
A2
100
AcDbEntity
  8
Laag 1
 62
   250
370
     5
  0
SPLINE
  5
A9
330
1F
100
AcDbEntity
  8
Laag 1
 62
   250
370
     5
100
AcDbSpline
210
0.0
220
0.0
230
1.0
 70
    11
 71
     3
 72
   101
 73
    97
 74
     0
 42
0.0000000001
 43
0.0000000001
 12
1.0
 22
0.0
 32
0.0
 13
1.0
 23
0.0
 33
0.0
 40
0.0
 40
0.0
 40
0.0
 40
0.0
 40
1.0
 40
1.0
 40
1.0
 40
2.0
 40
2.0
 40
2.0
 40
3.0
 40
3.0
 40
3.0
 40
4.0
 40
4.0
 40
4.0
 40
5.0
 40
5.0
 40
5.0
 40
6.0
 40
6.0
 40
6.0
 40
7.0
 40
7.0
 40
7.0
 40
8.0
 40
8.0
 40
8.0
 40
9.0
 40
9.0
 40
9.0
 40
10.0
 40
10.0
 40
10.0
 40
11.0
 40
11.0
 40
11.0
 40
12.0
 40
12.0
 40
12.0
 40
13.0
 40
13.0
 40
13.0
 40
14.0
 40
14.0
 40
14.0
 40
15.0
 40
15.0
 40
15.0
 40
16.0
 40
16.0
 40
16.0
 40
17.0
 40
17.0
 40
17.0
 40
18.0
 40
18.0
 40
18.0
 40
19.0
 40
19.0
 40
19.0
 40
20.0
 40
20.0
 40
20.0
 40
21.0
 40
21.0
 40
21.0
 40
22.0
 40
22.0
 40
22.0
 40
23.0
 40
23.0
 40
23.0
 40
24.0
 40
24.0
 40
24.0
 40
25.0
 40
25.0
 40
25.0
 40
26.0
 40
26.0
 40
26.0
 40
27.0
 40
27.0
 40
27.0
 40
28.0
 40
28.0
 40
28.0
 40
29.0
 40
29.0
 40
29.0
 40
30.0
 40
30.0
 40
30.0
 40
31.0
 40
31.0
 40
31.0
 40
32.0
 40
32.0
 40
32.0
 40
32.0
 10
85.85705394305793
 20
-40.82513737563807
 30
0.0
 10
85.85705394305793
 20
-40.82513737563807
 30
0.0
 10
87.97837148810052
 20
-38.70381983059549
 30
0.0
 10
87.97837148810052
 20
-38.70381983059549
 30
0.0
 10
87.97837148810052
 20
-38.70381983059549
 30
0.0
 10
97.85373769656917
 20
-48.57918603906414
 30
0.0
 10
97.85373769656917
 20
-48.57918603906414
 30
0.0
 10
98.16452837303228
 20
-47.92778307834374
 30
0.0
 10
98.34363027457171
 20
-47.20151388635951
 30
0.0
 10
98.34363027457171
 20
-46.43166423648687
 30
0.0
 10
98.34363027457171
 20
-46.43166423648687
 30
0.0
 10
98.34363027457171
 20
-30.63551386337428
 30
0.0
 10
98.34363027457171
 20
-30.63551386337428
 30
0.0
 10
98.34363027457171
 20
-30.63551386337428
 30
0.0
 10
83.34364146810034
 20
-30.63551386337428
 30
0.0
 10
83.34364146810034
 20
-30.63551386337428
 30
0.0
 10
83.34364146810034
 20
-30.63551386337428
 30
0.0
 10
83.34364146810034
 20
-27.63552471481872
 30
0.0
 10
83.34364146810034
 20
-27.63552471481872
 30
0.0
 10
83.34364146810034
 20
-27.63552471481872
 30
0.0
 10
98.34363027457171
 20
-27.63552471481872
 30
0.0
 10
98.34363027457171
 20
-27.63552471481872
 30
0.0
 10
98.34363027457171
 20
-27.63552471481872
 30
0.0
 10
98.34363027457171
 20
-11.43181954580107
 30
0.0
 10
98.34363027457171
 20
-11.43181954580107
 30
0.0
 10
98.34363027457171
 20
-10.64063183576666
 30
0.0
 10
98.15488210567358
 20
-9.89522083199251
 30
0.0
 10
97.82770569380875
 20
-9.23023127595216
 30
0.0
 10
97.82770569380875
 20
-9.23023127595216
 30
0.0
 10
87.97837148810052
 20
-19.07958701350718
 30
0.0
 10
87.97837148810052
 20
-19.07958701350718
 30
0.0
 10
87.97837148810052
 20
-19.07958701350718
 30
0.0
 10
85.85705394305793
 20
-16.9582694684646
 30
0.0
 10
85.85705394305793
 20
-16.9582694684646
 30
0.0
 10
85.85705394305793
 20
-16.9582694684646
 30
0.0
 10
95.75998091540859
 20
-7.055320964267155
 30
0.0
 10
95.75998091540859
 20
-7.055320964267155
 30
0.0
 10
95.04350871371054
 20
-6.658855069455248
 30
0.0
 10
94.22038927489722
 20
-6.431737149590152
 30
0.0
 10
93.34356941020756
 20
-6.431737149590152
 30
0.0
 10
93.34356941020756
 20
-6.431737149590152
 30
0.0
 10
58.34370318767498
 20
-6.431737149590152
 30
0.0
 10
58.34370318767498
 20
-6.431737149590152
 30
0.0
 10
55.58224383777941
 20
-6.431737149590152
 30
0.0
 10
53.34364232331085
 20
-8.670338664058713
 30
0.0
 10
53.34364232331085
 20
-11.43181954580107
 30
0.0
 10
53.34364232331085
 20
-11.43181954580107
 30
0.0
 10
53.34364232331085
 20
-14.63982786612537
 30
0.0
 10
53.34364232331085
 20
-14.63982786612537
 30
0.0
 10
53.34364232331085
 20
-14.63982786612537
 30
0.0
 10
68.34363112978221
 20
-14.63982786612537
 30
0.0
 10
68.34363112978221
 20
-14.63982786612537
 30
0.0
 10
68.34363112978221
 20
-14.63982786612537
 30
0.0
 10
68.34363112978221
 20
-17.63981701468093
 30
0.0
 10
68.34363112978221
 20
-17.63981701468093
 30
0.0
 10
68.34363112978221
 20
-17.63981701468093
 30
0.0
 10
53.34364232331085
 20
-17.63981701468093
 30
0.0
 10
53.34364232331085
 20
-17.63981701468093
 30
0.0
 10
53.34364232331085
 20
-17.63981701468093
 30
0.0
 10
53.34364232331085
 20
-27.79772411663364
 30
0.0
 10
53.34364232331085
 20
-27.79772411663364
 30
0.0
 10
53.34364232331085
 20
-27.79772411663364
 30
0.0
 10
68.34363112978221
 20
-27.79772411663364
 30
0.0
 10
68.34363112978221
 20
-27.79772411663364
 30
0.0
 10
68.34363112978221
 20
-27.79772411663364
 30
0.0
 10
68.34363112978221
 20
-30.59770394042366
 30
0.0
 10
68.34363112978221
 20
-30.59770394042366
 30
0.0
 10
68.34363112978221
 20
-30.59770394042366
 30
0.0
 10
53.34364232331085
 20
-30.59770394042366
 30
0.0
 10
53.34364232331085
 20
-30.59770394042366
 30
0.0
 10
53.34364232331085
 20
-30.59770394042366
 30
0.0
 10
53.34364232331085
 20
-41.00561731537159
 30
0.0
 10
53.34364232331085
 20
-41.00561731537159
 30
0.0
 10
53.34364232331085
 20
-41.00561731537159
 30
0.0
 10
68.34363112978221
 20
-41.00561731537159
 30
0.0
 10
68.34363112978221
 20
-41.00561731537159
 30
0.0
 10
68.34363112978221
 20
-41.00561731537159
 30
0.0
 10
68.34363112978221
 20
-43.50561544978349
 30
0.0
 10
68.34363112978221
 20
-43.50561544978349
 30
0.0
 10
68.34363112978221
 20
-43.50561544978349
 30
0.0
 10
53.34364232331085
 20
-43.50561544978349
 30
0.0
 10
53.34364232331085
 20
-43.50561544978349
 30
0.0
 10
53.34364232331085
 20
-43.50561544978349
 30
0.0
 10
53.34364232331085
 20
-46.43166423648687
 30
0.0
 10
53.34364232331085
 20
-46.43166423648687
 30
0.0
 10
53.34364232331085
 20
-49.19312358638245
 30
0.0
 10
55.58224383777941
 20
-51.43174663269779
 30
0.0
 10
58.34370318767498
 20
-51.43174663269779
 30
0.0
 10
58.34370318767498
 20
-51.43174663269779
 30
0.0
 10
93.34356941020756
 20
-51.43174663269779
 30
0.0
 10
93.34356941020756
 20
-51.43174663269779
 30
0.0
 10
94.24123210258298
 20
-51.43174663269779
 30
0.0
 10
95.08155548697576
 20
-51.19205411431153
 30
0.0
 10
95.80978407701723
 20
-50.77788904144415
 30
0.0
 10
95.80978407701723
 20
-50.77788904144415
 30
0.0
 10
85.85705394305793
 20
-40.82513737563807
 30
0.0
 10
85.85705394305793
 20
-40.82513737563807
 30
0.0
  0
SPLINE
  5
AA
330
1F
100
AcDbEntity
  8
Laag 1
 62
   250
370
     5
100
AcDbSpline
210
0.0
220
0.0
230
1.0
 70
    11
 71
     3
 72
    89
 73
    85
 74
     0
 42
0.0000000001
 43
0.0000000001
 12
1.0
 22
0.0
 32
0.0
 13
1.0
 23
0.0
 33
0.0
 40
0.0
 40
0.0
 40
0.0
 40
0.0
 40
1.0
 40
1.0
 40
1.0
 40
2.0
 40
2.0
 40
2.0
 40
3.0
 40
3.0
 40
3.0
 40
4.0
 40
4.0
 40
4.0
 40
5.0
 40
5.0
 40
5.0
 40
6.0
 40
6.0
 40
6.0
 40
7.0
 40
7.0
 40
7.0
 40
8.0
 40
8.0
 40
8.0
 40
9.0
 40
9.0
 40
9.0
 40
10.0
 40
10.0
 40
10.0
 40
11.0
 40
11.0
 40
11.0
 40
12.0
 40
12.0
 40
12.0
 40
13.0
 40
13.0
 40
13.0
 40
14.0
 40
14.0
 40
14.0
 40
15.0
 40
15.0
 40
15.0
 40
16.0
 40
16.0
 40
16.0
 40
17.0
 40
17.0
 40
17.0
 40
18.0
 40
18.0
 40
18.0
 40
19.0
 40
19.0
 40
19.0
 40
20.0
 40
20.0
 40
20.0
 40
21.0
 40
21.0
 40
21.0
 40
22.0
 40
22.0
 40
22.0
 40
23.0
 40
23.0
 40
23.0
 40
24.0
 40
24.0
 40
24.0
 40
25.0
 40
25.0
 40
25.0
 40
26.0
 40
26.0
 40
26.0
 40
27.0
 40
27.0
 40
27.0
 40
28.0
 40
28.0
 40
28.0
 40
28.0
 10
130.1837627550594
 20
-36.83912960143383
 30
0.0
 10
130.1837627550594
 20
-36.83912960143383
 30
0.0
 10
132.305080300102
 20
-34.71781205639125
 30
0.0
 10
132.305080300102
 20
-34.71781205639125
 30
0.0
 10
132.305080300102
 20
-34.71781205639125
 30
0.0
 10
146.1664650486983
 20
-48.57919680498753
 30
0.0
 10
146.1664650486983
 20
-48.57919680498753
 30
0.0
 10
146.4772557251614
 20
-47.92779384426682
 30
0.0
 10
146.6563576267008
 20
-47.20152465228291
 30
0.0
 10
146.6563576267008
 20
-46.43167500240995
 30
0.0
 10
146.6563576267008
 20
-46.43167500240995
 30
0.0
 10
146.6563576267008
 20
-11.43180877987768
 30
0.0
 10
146.6563576267008
 20
-11.43180877987768
 30
0.0
 10
146.6563576267008
 20
-10.64062106984327
 30
0.0
 10
146.4676094578027
 20
-9.895231597915902
 30
0.0
 10
146.1404330459378
 20
-9.230242041875552
 30
0.0
 10
146.1404330459378
 20
-9.230242041875552
 30
0.0
 10
132.3701064773861
 20
-23.00056861042733
 30
0.0
 10
132.3701064773861
 20
-23.00056861042733
 30
0.0
 10
132.3701064773861
 20
-23.00056861042733
 30
0.0
 10
130.2487889323435
 20
-20.87922953353796
 30
0.0
 10
130.2487889323435
 20
-20.87922953353796
 30
0.0
 10
130.2487889323435
 20
-20.87922953353796
 30
0.0
 10
144.0727082675377
 20
-7.055331730190547
 30
0.0
 10
144.0727082675377
 20
-7.055331730190547
 30
0.0
 10
143.3562360658396
 20
-6.658865835378639
 30
0.0
 10
142.5331166270263
 20
-6.431747915513544
 30
0.0
 10
141.6562967623367
 20
-6.431747915513544
 30
0.0
 10
141.6562967623367
 20
-6.431747915513544
 30
0.0
 10
106.6564305398041
 20
-6.431747915513544
 30
0.0
 10
106.6564305398041
 20
-6.431747915513544
 30
0.0
 10
103.8949711899085
 20
-6.431747915513544
 30
0.0
 10
101.6563696754399
 20
-8.670349429982105
 30
0.0
 10
101.6563696754399
 20
-11.43180877987768
 30
0.0
 10
101.6563696754399
 20
-11.43180877987768
 30
0.0
 10
101.6563696754399
 20
-14.63981710020198
 30
0.0
 10
101.6563696754399
 20
-14.63981710020198
 30
0.0
 10
101.6563696754399
 20
-14.63981710020198
 30
0.0
 10
124.156352885147
 20
-14.63981710020198
 30
0.0
 10
124.156352885147
 20
-14.63981710020198
 30
0.0
 10
124.156352885147
 20
-14.63981710020198
 30
0.0
 10
124.156352885147
 20
-17.63982778060432
 30
0.0
 10
124.156352885147
 20
-17.63982778060432
 30
0.0
 10
124.156352885147
 20
-17.63982778060432
 30
0.0
 10
101.6563696754399
 20
-17.63982778060432
 30
0.0
 10
101.6563696754399
 20
-17.63982778060432
 30
0.0
 10
101.6563696754399
 20
-17.63982778060432
 30
0.0
 10
101.6563696754399
 20
-27.08169331779463
 30
0.0
 10
101.6563696754399
 20
-27.08169331779463
 30
0.0
 10
101.6563696754399
 20
-27.08169331779463
 30
0.0
 10
124.156352885147
 20
-27.08169331779463
 30
0.0
 10
124.156352885147
 20
-27.08169331779463
 30
0.0
 10
124.156352885147
 20
-27.08169331779463
 30
0.0
 10
124.156352885147
 20
-30.08170399819697
 30
0.0
 10
124.156352885147
 20
-30.08170399819697
 30
0.0
 10
124.156352885147
 20
-30.08170399819697
 30
0.0
 10
101.6563696754399
 20
-30.08170399819697
 30
0.0
 10
101.6563696754399
 20
-30.08170399819697
 30
0.0
 10
101.6563696754399
 20
-30.08170399819697
 30
0.0
 10
101.6563696754399
 20
-39.52356953538697
 30
0.0
 10
101.6563696754399
 20
-39.52356953538697
 30
0.0
 10
101.6563696754399
 20
-39.52356953538697
 30
0.0
 10
124.156352885147
 20
-39.52356953538697
 30
0.0
 10
124.156352885147
 20
-39.52356953538697
 30
0.0
 10
124.156352885147
 20
-39.52356953538697
 30
0.0
 10
124.156352885147
 20
-42.52355868394253
 30
0.0
 10
124.156352885147
 20
-42.52355868394253
 30
0.0
 10
124.156352885147
 20
-42.52355868394253
 30
0.0
 10
101.6563696754399
 20
-42.52355868394253
 30
0.0
 10
101.6563696754399
 20
-42.52355868394253
 30
0.0
 10
101.6563696754399
 20
-42.52355868394253
 30
0.0
 10
101.6563696754399
 20
-46.43167500240995
 30
0.0
 10
101.6563696754399
 20
-46.43167500240995
 30
0.0
 10
101.6563696754399
 20
-49.19313435230584
 30
0.0
 10
103.8949711899085
 20
-51.4317358667744
 30
0.0
 10
106.6564305398041
 20
-51.4317358667744
 30
0.0
 10
106.6564305398041
 20
-51.4317358667744
 30
0.0
 10
141.6562967623367
 20
-51.4317358667744
 30
0.0
 10
141.6562967623367
 20
-51.4317358667744
 30
0.0
 10
142.5539594547121
 20
-51.4317358667744
 30
0.0
 10
143.3943043709516
 20
-51.19206488023492
 30
0.0
 10
144.1225329609931
 20
-50.77789980736755
 30
0.0
 10
144.1225329609931
 20
-50.77789980736755
 30
0.0
 10
130.1837627550594
 20
-36.83912960143383
 30
0.0
 10
130.1837627550594
 20
-36.83912960143383
 30
0.0
  0
SPLINE
  5
AB
330
1F
100
AcDbEntity
  8
Laag 1
 62
   250
370
     5
100
AcDbSpline
210
0.0
220
0.0
230
1.0
 70
    11
 71
     3
 72
    89
 73
    85
 74
     0
 42
0.0000000001
 43
0.0000000001
 12
1.0
 22
0.0
 32
0.0
 13
1.0
 23
0.0
 33
0.0
 40
0.0
 40
0.0
 40
0.0
 40
0.0
 40
1.0
 40
1.0
 40
1.0
 40
2.0
 40
2.0
 40
2.0
 40
3.0
 40
3.0
 40
3.0
 40
4.0
 40
4.0
 40
4.0
 40
5.0
 40
5.0
 40
5.0
 40
6.0
 40
6.0
 40
6.0
 40
7.0
 40
7.0
 40
7.0
 40
8.0
 40
8.0
 40
8.0
 40
9.0
 40
9.0
 40
9.0
 40
10.0
 40
10.0
 40
10.0
 40
11.0
 40
11.0
 40
11.0
 40
12.0
 40
12.0
 40
12.0
 40
13.0
 40
13.0
 40
13.0
 40
14.0
 40
14.0
 40
14.0
 40
15.0
 40
15.0
 40
15.0
 40
16.0
 40
16.0
 40
16.0
 40
17.0
 40
17.0
 40
17.0
 40
18.0
 40
18.0
 40
18.0
 40
19.0
 40
19.0
 40
19.0
 40
20.0
 40
20.0
 40
20.0
 40
21.0
 40
21.0
 40
21.0
 40
22.0
 40
22.0
 40
22.0
 40
23.0
 40
23.0
 40
23.0
 40
24.0
 40
24.0
 40
24.0
 40
25.0
 40
25.0
 40
25.0
 40
26.0
 40
26.0
 40
26.0
 40
27.0
 40
27.0
 40
27.0
 40
28.0
 40
28.0
 40
28.0
 40
28.0
 10
178.4964901071885
 20
-36.83912960143383
 30
0.0
 10
178.4964901071885
 20
-36.83912960143383
 30
0.0
 10
180.6178076522311
 20
-34.71781205639125
 30
0.0
 10
180.6178076522311
 20
-34.71781205639125
 30
0.0
 10
180.6178076522311
 20
-34.71781205639125
 30
0.0
 10
194.4791924008274
 20
-48.57919680498753
 30
0.0
 10
194.4791924008274
 20
-48.57919680498753
 30
0.0
 10
194.7899830772905
 20
-47.92779384426682
 30
0.0
 10
194.9690849788299
 20
-47.20152465228291
 30
0.0
 10
194.9690849788299
 20
-46.43167500240995
 30
0.0
 10
194.9690849788299
 20
-46.43167500240995
 30
0.0
 10
194.9690849788299
 20
-11.43180877987768
 30
0.0
 10
194.9690849788299
 20
-11.43180877987768
 30
0.0
 10
194.9690849788299
 20
-10.64062106984327
 30
0.0
 10
194.7803368099318
 20
-9.895231597915902
 30
0.0
 10
194.453160398067
 20
-9.230242041875552
 30
0.0
 10
194.453160398067
 20
-9.230242041875552
 30
0.0
 10
180.6828338295152
 20
-23.00056861042733
 30
0.0
 10
180.6828338295152
 20
-23.00056861042733
 30
0.0
 10
180.6828338295152
 20
-23.00056861042733
 30
0.0
 10
178.5615162844726
 20
-20.87922953353796
 30
0.0
 10
178.5615162844726
 20
-20.87922953353796
 30
0.0
 10
178.5615162844726
 20
-20.87922953353796
 30
0.0
 10
192.3854356196668
 20
-7.055331730190547
 30
0.0
 10
192.3854356196668
 20
-7.055331730190547
 30
0.0
 10
191.6689634179687
 20
-6.658865835378639
 30
0.0
 10
190.8458439791554
 20
-6.431747915513544
 30
0.0
 10
189.9690241144658
 20
-6.431747915513544
 30
0.0
 10
189.9690241144658
 20
-6.431747915513544
 30
0.0
 10
154.9691578919332
 20
-6.431747915513544
 30
0.0
 10
154.9691578919332
 20
-6.431747915513544
 30
0.0
 10
152.2076985420376
 20
-6.431747915513544
 30
0.0
 10
149.969097027569
 20
-8.670349429982105
 30
0.0
 10
149.969097027569
 20
-11.43180877987768
 30
0.0
 10
149.969097027569
 20
-11.43180877987768
 30
0.0
 10
149.969097027569
 20
-14.63981710020198
 30
0.0
 10
149.969097027569
 20
-14.63981710020198
 30
0.0
 10
149.969097027569
 20
-14.63981710020198
 30
0.0
 10
172.4690802372761
 20
-14.63981710020198
 30
0.0
 10
172.4690802372761
 20
-14.63981710020198
 30
0.0
 10
172.4690802372761
 20
-14.63981710020198
 30
0.0
 10
172.4690802372761
 20
-17.63982778060432
 30
0.0
 10
172.4690802372761
 20
-17.63982778060432
 30
0.0
 10
172.4690802372761
 20
-17.63982778060432
 30
0.0
 10
149.969097027569
 20
-17.63982778060432
 30
0.0
 10
149.969097027569
 20
-17.63982778060432
 30
0.0
 10
149.969097027569
 20
-17.63982778060432
 30
0.0
 10
149.969097027569
 20
-27.08169331779463
 30
0.0
 10
149.969097027569
 20
-27.08169331779463
 30
0.0
 10
149.969097027569
 20
-27.08169331779463
 30
0.0
 10
172.4690802372761
 20
-27.08169331779463
 30
0.0
 10
172.4690802372761
 20
-27.08169331779463
 30
0.0
 10
172.4690802372761
 20
-27.08169331779463
 30
0.0
 10
172.4690802372761
 20
-30.08170399819697
 30
0.0
 10
172.4690802372761
 20
-30.08170399819697
 30
0.0
 10
172.4690802372761
 20
-30.08170399819697
 30
0.0
 10
149.969097027569
 20
-30.08170399819697
 30
0.0
 10
149.969097027569
 20
-30.08170399819697
 30
0.0
 10
149.969097027569
 20
-30.08170399819697
 30
0.0
 10
149.969097027569
 20
-39.52356953538697
 30
0.0
 10
149.969097027569
 20
-39.52356953538697
 30
0.0
 10
149.969097027569
 20
-39.52356953538697
 30
0.0
 10
172.4690802372761
 20
-39.52356953538697
 30
0.0
 10
172.4690802372761
 20
-39.52356953538697
 30
0.0
 10
172.4690802372761
 20
-39.52356953538697
 30
0.0
 10
172.4690802372761
 20
-42.52355868394253
 30
0.0
 10
172.4690802372761
 20
-42.52355868394253
 30
0.0
 10
172.4690802372761
 20
-42.52355868394253
 30
0.0
 10
149.969097027569
 20
-42.52355868394253
 30
0.0
 10
149.969097027569
 20
-42.52355868394253
 30
0.0
 10
149.969097027569
 20
-42.52355868394253
 30
0.0
 10
149.969097027569
 20
-46.43167500240995
 30
0.0
 10
149.969097027569
 20
-46.43167500240995
 30
0.0
 10
149.969097027569
 20
-49.19313435230584
 30
0.0
 10
152.2076985420376
 20
-51.4317358667744
 30
0.0
 10
154.9691578919332
 20
-51.4317358667744
 30
0.0
 10
154.9691578919332
 20
-51.4317358667744
 30
0.0
 10
189.9690241144658
 20
-51.4317358667744
 30
0.0
 10
189.9690241144658
 20
-51.4317358667744
 30
0.0
 10
190.8666868068412
 20
-51.4317358667744
 30
0.0
 10
191.7070317230807
 20
-51.19206488023492
 30
0.0
 10
192.4352603131222
 20
-50.77789980736755
 30
0.0
 10
192.4352603131222
 20
-50.77789980736755
 30
0.0
 10
178.4964901071885
 20
-36.83912960143383
 30
0.0
 10
178.4964901071885
 20
-36.83912960143383
 30
0.0
  0
SPLINE
  5
AC
330
1F
100
AcDbEntity
  8
Laag 1
 62
   250
370
     5
100
AcDbSpline
210
0.0
220
0.0
230
1.0
 70
    11
 71
     3
 72
    77
 73
    73
 74
     0
 42
0.0000000001
 43
0.0000000001
 12
1.0
 22
0.0
 32
0.0
 13
1.0
 23
0.0
 33
0.0
 40
0.0
 40
0.0
 40
0.0
 40
0.0
 40
1.0
 40
1.0
 40
1.0
 40
2.0
 40
2.0
 40
2.0
 40
3.0
 40
3.0
 40
3.0
 40
4.0
 40
4.0
 40
4.0
 40
5.0
 40
5.0
 40
5.0
 40
6.0
 40
6.0
 40
6.0
 40
7.0
 40
7.0
 40
7.0
 40
8.0
 40
8.0
 40
8.0
 40
9.0
 40
9.0
 40
9.0
 40
10.0
 40
10.0
 40
10.0
 40
11.0
 40
11.0
 40
11.0
 40
12.0
 40
12.0
 40
12.0
 40
13.0
 40
13.0
 40
13.0
 40
14.0
 40
14.0
 40
14.0
 40
15.0
 40
15.0
 40
15.0
 40
16.0
 40
16.0
 40
16.0
 40
17.0
 40
17.0
 40
17.0
 40
18.0
 40
18.0
 40
18.0
 40
19.0
 40
19.0
 40
19.0
 40
20.0
 40
20.0
 40
20.0
 40
21.0
 40
21.0
 40
21.0
 40
22.0
 40
22.0
 40
22.0
 40
23.0
 40
23.0
 40
23.0
 40
24.0
 40
24.0
 40
24.0
 40
24.0
 10
126.2309678545176
 20
-83.22584158618139
 30
0.0
 10
126.2309678545176
 20
-83.22584158618139
 30
0.0
 10
128.3522853995602
 20
-81.1045240411388
 30
0.0
 10
128.3522853995602
 20
-81.1045240411388
 30
0.0
 10
128.3522853995602
 20
-81.1045240411388
 30
0.0
 10
145.1216752472559
 20
-97.87391388883448
 30
0.0
 10
145.1216752472559
 20
-97.87391388883448
 30
0.0
 10
146.0888427410462
 20
-96.470252797063
 30
0.0
 10
146.6563576267008
 20
-94.76994745216473
 30
0.0
 10
146.6563576267008
 20
-92.93644610306798
 30
0.0
 10
146.6563576267008
 20
-92.93644610306798
 30
0.0
 10
146.6563576267008
 20
-65.36474404290361
 30
0.0
 10
146.6563576267008
 20
-65.36474404290361
 30
0.0
 10
146.6563576267008
 20
-63.53124269380686
 30
0.0
 10
146.0888427410462
 20
-61.83093734890859
 30
0.0
 10
145.1216752472559
 20
-60.42727625713711
 30
0.0
 10
145.1216752472559
 20
-60.42727625713711
 30
0.0
 10
128.1933157747627
 20
-77.35563572963028
 30
0.0
 10
128.1933157747627
 20
-77.35563572963028
 30
0.0
 10
128.1933157747627
 20
-77.35563572963028
 30
0.0
 10
126.0719982297202
 20
-75.23429665274091
 30
0.0
 10
126.0719982297202
 20
-75.23429665274091
 30
0.0
 10
126.0719982297202
 20
-75.23429665274091
 30
0.0
 10
143.0207268292699
 20
-58.2855680531912
 30
0.0
 10
143.0207268292699
 20
-58.2855680531912
 30
0.0
 10
141.5905815659555
 20
-57.25776687886047
 30
0.0
 10
139.8378246422943
 20
-56.65059033143197
 30
0.0
 10
137.9422254470759
 20
-56.65059033143197
 30
0.0
 10
137.9422254470759
 20
-56.65059033143197
 30
0.0
 10
110.3705233869116
 20
-56.65059033143197
 30
0.0
 10
110.3705233869116
 20
-56.65059033143197
 30
0.0
 10
108.5029371243576
 20
-56.65059033143197
 30
0.0
 10
106.7740590187786
 20
-57.24004616895822
 30
0.0
 10
105.3556486119609
 20
-58.24030811125373
 30
0.0
 10
105.3556486119609
 20
-58.24030811125373
 30
0.0
 10
122.1906890604973
 20
-75.07532702794342
 30
0.0
 10
122.1906890604973
 20
-75.07532702794342
 30
0.0
 10
122.1906890604973
 20
-75.07532702794342
 30
0.0
 10
120.0693715154547
 20
-77.196644572986
 30
0.0
 10
120.0693715154547
 20
-77.196644572986
 30
0.0
 10
120.0693715154547
 20
-77.196644572986
 30
0.0
 10
103.2363335286691
 20
-60.36360658620033
 30
0.0
 10
103.2363335286691
 20
-60.36360658620033
 30
0.0
 10
102.2419713123921
 20
-61.7794331714041
 30
0.0
 10
101.6563696754399
 20
-63.50320822929564
 30
0.0
 10
101.6563696754399
 20
-65.36474404290361
 30
0.0
 10
101.6563696754399
 20
-65.36474404290361
 30
0.0
 10
101.6563696754399
 20
-92.93644610306798
 30
0.0
 10
101.6563696754399
 20
-92.93644610306798
 30
0.0
 10
101.6563696754399
 20
-94.83204529828635
 30
0.0
 10
102.2635462228684
 20
-96.58480222194756
 30
0.0
 10
103.2913473971992
 20
-98.0149474852619
 30
0.0
 10
103.2913473971992
 20
-98.0149474852619
 30
0.0
 10
120.0693715154547
 20
-81.23692336700631
 30
0.0
 10
120.0693715154547
 20
-81.23692336700631
 30
0.0
 10
120.0693715154547
 20
-81.23692336700631
 30
0.0
 10
122.1906890604973
 20
-83.35826244389568
 30
0.0
 10
122.1906890604973
 20
-83.35826244389568
 30
0.0
 10
122.1906890604973
 20
-83.35826244389568
 30
0.0
 10
105.4330340692983
 20
-100.1158959032479
 30
0.0
 10
105.4330340692983
 20
-100.1158959032479
 30
0.0
 10
106.8366951610698
 20
-101.0830633970383
 30
0.0
 10
108.5370005059681
 20
-101.6505782826928
 30
0.0
 10
110.3705233869116
 20
-101.6505782826928
 30
0.0
 10
110.3705233869116
 20
-101.6505782826928
 30
0.0
 10
137.9422254470759
 20
-101.6505782826928
 30
0.0
 10
137.9422254470759
 20
-101.6505782826928
 30
0.0
 10
139.8378246422943
 20
-101.6505782826928
 30
0.0
 10
141.5905815659555
 20
-101.0434017352643
 30
0.0
 10
143.0207268292699
 20
-100.0156005609336
 30
0.0
 10
143.0207268292699
 20
-100.0156005609336
 30
0.0
 10
126.2309678545176
 20
-83.22584158618139
 30
0.0
 10
126.2309678545176
 20
-83.22584158618139
 30
0.0
  0
POLYLINE
  5
AD
330
1F
100
AcDbEntity
  8
Laag 1
 62
   250
370
     5
100
AcDb2dPolyline
 66
     1
 10
0.0
 20
0.0
 30
0.0
  0
VERTEX
  5
AE
330
AD
100
AcDbEntity
  8
Laag 1
 62
   250
370
     5
100
AcDbVertex
100
AcDb2dVertex
 10
121.6563636516956
 20
-64.24540316290074
 30
0.0
  0
VERTEX
  5
AF
330
AD
100
AcDbEntity
  8
Laag 1
 62
   250
370
     5
100
AcDbVertex
100
AcDb2dVertex
 10
121.6563636516956
 20
-61.24540316365079
 30
0.0
  0
VERTEX
  5
B0
330
AD
100
AcDbEntity
  8
Laag 1
 62
   250
370
     5
100
AcDbVertex
100
AcDb2dVertex
 10
126.6563636504451
 20
-61.24540316365079
 30
0.0
  0
VERTEX
  5
B1
330
AD
100
AcDbEntity
  8
Laag 1
 62
   250
370
     5
100
AcDbVertex
100
AcDb2dVertex
 10
126.6563636504451
 20
-64.24540316290074
 30
0.0
  0
VERTEX
  5
B2
330
AD
100
AcDbEntity
  8
Laag 1
 62
   250
370
     5
100
AcDbVertex
100
AcDb2dVertex
 10
121.6563636516956
 20
-64.24540316290074
 30
0.0
  0
SEQEND
  5
B3
330
AD
100
AcDbEntity
  8
Laag 1
 62
   250
370
     5
  0
POLYLINE
  5
B4
330
1F
100
AcDbEntity
  8
Laag 1
 62
   250
370
     5
100
AcDb2dPolyline
 66
     1
 10
0.0
 20
0.0
 30
0.0
  0
VERTEX
  5
B5
330
B4
100
AcDbEntity
  8
Laag 1
 62
   250
370
     5
100
AcDbVertex
100
AcDb2dVertex
 10
121.6563636516956
 20
-97.82003287970039
 30
0.0
  0
VERTEX
  5
B6
330
B4
100
AcDbEntity
  8
Laag 1
 62
   250
370
     5
100
AcDbVertex
100
AcDb2dVertex
 10
121.6563636516956
 20
-94.82003288045043
 30
0.0
  0
VERTEX
  5
B7
330
B4
100
AcDbEntity
  8
Laag 1
 62
   250
370
     5
100
AcDbVertex
100
AcDb2dVertex
 10
126.6563636504451
 20
-94.82003288045043
 30
0.0
  0
VERTEX
  5
B8
330
B4
100
AcDbEntity
  8
Laag 1
 62
   250
370
     5
100
AcDbVertex
100
AcDb2dVertex
 10
126.6563636504451
 20
-97.82003287970039
 30
0.0
  0
VERTEX
  5
B9
330
B4
100
AcDbEntity
  8
Laag 1
 62
   250
370
     5
100
AcDbVertex
100
AcDb2dVertex
 10
121.6563636516956
 20
-97.82003287970039
 30
0.0
  0
SEQEND
  5
BA
330
B4
100
AcDbEntity
  8
Laag 1
 62
   250
370
     5
  0
POLYLINE
  5
BB
330
1F
100
AcDbEntity
  8
Laag 1
 62
   250
370
     5
100
AcDb2dPolyline
 66
     1
 10
0.0
 20
0.0
 30
0.0
  0
VERTEX
  5
BC
330
BB
100
AcDbEntity
  8
Laag 1
 62
   250
370
     5
100
AcDbVertex
100
AcDb2dVertex
 10
108.869048792296
 20
-81.65058430643715
 30
0.0
  0
VERTEX
  5
BD
330
BB
100
AcDbEntity
  8
Laag 1
 62
   250
370
     5
100
AcDbVertex
100
AcDb2dVertex
 10
105.869048793046
 20
-81.65058430643715
 30
0.0
  0
VERTEX
  5
BE
330
BB
100
AcDbEntity
  8
Laag 1
 62
   250
370
     5
100
AcDbVertex
100
AcDb2dVertex
 10
105.869048793046
 20
-76.65058430768765
 30
0.0
  0
VERTEX
  5
BF
330
BB
100
AcDbEntity
  8
Laag 1
 62
   250
370
     5
100
AcDbVertex
100
AcDb2dVertex
 10
108.869048792296
 20
-76.65058430768765
 30
0.0
  0
VERTEX
  5
C0
330
BB
100
AcDbEntity
  8
Laag 1
 62
   250
370
     5
100
AcDbVertex
100
AcDb2dVertex
 10
108.869048792296
 20
-81.65058430643715
 30
0.0
  0
SEQEND
  5
C1
330
BB
100
AcDbEntity
  8
Laag 1
 62
   250
370
     5
  0
POLYLINE
  5
C2
330
1F
100
AcDbEntity
  8
Laag 1
 62
   250
370
     5
100
AcDb2dPolyline
 66
     1
 10
0.0
 20
0.0
 30
0.0
  0
VERTEX
  5
C3
330
C2
100
AcDbEntity
  8
Laag 1
 62
   250
370
     5
100
AcDbVertex
100
AcDb2dVertex
 10
142.4436785090953
 20
-81.65058430643715
 30
0.0
  0
VERTEX
  5
C4
330
C2
100
AcDbEntity
  8
Laag 1
 62
   250
370
     5
100
AcDbVertex
100
AcDb2dVertex
 10
139.4436785098454
 20
-81.65058430643715
 30
0.0
  0
VERTEX
  5
C5
330
C2
100
AcDbEntity
  8
Laag 1
 62
   250
370
     5
100
AcDbVertex
100
AcDb2dVertex
 10
139.4436785098454
 20
-76.65058430768765
 30
0.0
  0
VERTEX
  5
C6
330
C2
100
AcDbEntity
  8
Laag 1
 62
   250
370
     5
100
AcDbVertex
100
AcDb2dVertex
 10
142.4436785090953
 20
-76.65058430768765
 30
0.0
  0
VERTEX
  5
C7
330
C2
100
AcDbEntity
  8
Laag 1
 62
   250
370
     5
100
AcDbVertex
100
AcDb2dVertex
 10
142.4436785090953
 20
-81.65058430643715
 30
0.0
  0
SEQEND
  5
C8
330
C2
100
AcDbEntity
  8
Laag 1
 62
   250
370
     5
  0
SPLINE
  5
C9
330
1F
100
AcDbEntity
  8
Laag 1
 62
   250
370
     5
100
AcDbSpline
210
0.0
220
0.0
230
1.0
 70
    11
 71
     3
 72
    77
 73
    73
 74
     0
 42
0.0000000001
 43
0.0000000001
 12
1.0
 22
0.0
 32
0.0
 13
1.0
 23
0.0
 33
0.0
 40
0.0
 40
0.0
 40
0.0
 40
0.0
 40
1.0
 40
1.0
 40
1.0
 40
2.0
 40
2.0
 40
2.0
 40
3.0
 40
3.0
 40
3.0
 40
4.0
 40
4.0
 40
4.0
 40
5.0
 40
5.0
 40
5.0
 40
6.0
 40
6.0
 40
6.0
 40
7.0
 40
7.0
 40
7.0
 40
8.0
 40
8.0
 40
8.0
 40
9.0
 40
9.0
 40
9.0
 40
10.0
 40
10.0
 40
10.0
 40
11.0
 40
11.0
 40
11.0
 40
12.0
 40
12.0
 40
12.0
 40
13.0
 40
13.0
 40
13.0
 40
14.0
 40
14.0
 40
14.0
 40
15.0
 40
15.0
 40
15.0
 40
16.0
 40
16.0
 40
16.0
 40
17.0
 40
17.0
 40
17.0
 40
18.0
 40
18.0
 40
18.0
 40
19.0
 40
19.0
 40
19.0
 40
20.0
 40
20.0
 40
20.0
 40
21.0
 40
21.0
 40
21.0
 40
22.0
 40
22.0
 40
22.0
 40
23.0
 40
23.0
 40
23.0
 40
24.0
 40
24.0
 40
24.0
 40
24.0
 10
174.5436952066467
 20
-83.22584158618139
 30
0.0
 10
174.5436952066467
 20
-83.22584158618139
 30
0.0
 10
176.6650127516893
 20
-81.1045240411388
 30
0.0
 10
176.6650127516893
 20
-81.1045240411388
 30
0.0
 10
176.6650127516893
 20
-81.1045240411388
 30
0.0
 10
193.434402599385
 20
-97.87391388883448
 30
0.0
 10
193.434402599385
 20
-97.87391388883448
 30
0.0
 10
194.4015700931753
 20
-96.470252797063
 30
0.0
 10
194.9690849788299
 20
-94.76994745216473
 30
0.0
 10
194.9690849788299
 20
-92.93644610306798
 30
0.0
 10
194.9690849788299
 20
-92.93644610306798
 30
0.0
 10
194.9690849788299
 20
-65.36474404290361
 30
0.0
 10
194.9690849788299
 20
-65.36474404290361
 30
0.0
 10
194.9690849788299
 20
-63.53124269380686
 30
0.0
 10
194.4015700931753
 20
-61.83093734890859
 30
0.0
 10
193.434402599385
 20
-60.42727625713711
 30
0.0
 10
193.434402599385
 20
-60.42727625713711
 30
0.0
 10
176.5060431268918
 20
-77.35563572963028
 30
0.0
 10
176.5060431268918
 20
-77.35563572963028
 30
0.0
 10
176.5060431268918
 20
-77.35563572963028
 30
0.0
 10
174.3847255818492
 20
-75.23429665274091
 30
0.0
 10
174.3847255818492
 20
-75.23429665274091
 30
0.0
 10
174.3847255818492
 20
-75.23429665274091
 30
0.0
 10
191.333454181399
 20
-58.2855680531912
 30
0.0
 10
191.333454181399
 20
-58.2855680531912
 30
0.0
 10
189.9033089180846
 20
-57.25776687886047
 30
0.0
 10
188.1505519944234
 20
-56.65059033143197
 30
0.0
 10
186.254952799205
 20
-56.65059033143197
 30
0.0
 10
186.254952799205
 20
-56.65059033143197
 30
0.0
 10
158.6832507390407
 20
-56.65059033143197
 30
0.0
 10
158.6832507390407
 20
-56.65059033143197
 30
0.0
 10
156.8156644764867
 20
-56.65059033143197
 30
0.0
 10
155.0867863709077
 20
-57.24004616895822
 30
0.0
 10
153.66837596409
 20
-58.24030811125373
 30
0.0
 10
153.66837596409
 20
-58.24030811125373
 30
0.0
 10
170.5034164126264
 20
-75.07532702794342
 30
0.0
 10
170.5034164126264
 20
-75.07532702794342
 30
0.0
 10
170.5034164126264
 20
-75.07532702794342
 30
0.0
 10
168.3820988675838
 20
-77.196644572986
 30
0.0
 10
168.3820988675838
 20
-77.196644572986
 30
0.0
 10
168.3820988675838
 20
-77.196644572986
 30
0.0
 10
151.5490608807982
 20
-60.36360658620033
 30
0.0
 10
151.5490608807982
 20
-60.36360658620033
 30
0.0
 10
150.5546986645212
 20
-61.7794331714041
 30
0.0
 10
149.969097027569
 20
-63.50320822929564
 30
0.0
 10
149.969097027569
 20
-65.36474404290361
 30
0.0
 10
149.969097027569
 20
-65.36474404290361
 30
0.0
 10
149.969097027569
 20
-92.93644610306798
 30
0.0
 10
149.969097027569
 20
-92.93644610306798
 30
0.0
 10
149.969097027569
 20
-94.83204529828635
 30
0.0
 10
150.5762735749975
 20
-96.58480222194756
 30
0.0
 10
151.6040747493282
 20
-98.0149474852619
 30
0.0
 10
151.6040747493282
 20
-98.0149474852619
 30
0.0
 10
168.3820988675838
 20
-81.23692336700631
 30
0.0
 10
168.3820988675838
 20
-81.23692336700631
 30
0.0
 10
168.3820988675838
 20
-81.23692336700631
 30
0.0
 10
170.5034164126264
 20
-83.35826244389568
 30
0.0
 10
170.5034164126264
 20
-83.35826244389568
 30
0.0
 10
170.5034164126264
 20
-83.35826244389568
 30
0.0
 10
153.7457614214274
 20
-100.1158959032479
 30
0.0
 10
153.7457614214274
 20
-100.1158959032479
 30
0.0
 10
155.1494225131989
 20
-101.0830633970383
 30
0.0
 10
156.8497278580971
 20
-101.6505782826928
 30
0.0
 10
158.6832507390407
 20
-101.6505782826928
 30
0.0
 10
158.6832507390407
 20
-101.6505782826928
 30
0.0
 10
186.254952799205
 20
-101.6505782826928
 30
0.0
 10
186.254952799205
 20
-101.6505782826928
 30
0.0
 10
188.1505519944234
 20
-101.6505782826928
 30
0.0
 10
189.9033089180846
 20
-101.0434017352643
 30
0.0
 10
191.333454181399
 20
-100.0156005609336
 30
0.0
 10
191.333454181399
 20
-100.0156005609336
 30
0.0
 10
174.5436952066467
 20
-83.22584158618139
 30
0.0
 10
174.5436952066467
 20
-83.22584158618139
 30
0.0
  0
POLYLINE
  5
CA
330
1F
100
AcDbEntity
  8
Laag 1
 62
   250
370
     5
100
AcDb2dPolyline
 66
     1
 10
0.0
 20
0.0
 30
0.0
  0
VERTEX
  5
CB
330
CA
100
AcDbEntity
  8
Laag 1
 62
   250
370
     5
100
AcDbVertex
100
AcDb2dVertex
 10
169.9690910038247
 20
-64.24540316290107
 30
0.0
  0
VERTEX
  5
CC
330
CA
100
AcDbEntity
  8
Laag 1
 62
   250
370
     5
100
AcDbVertex
100
AcDb2dVertex
 10
169.9690910038247
 20
-61.24540316365111
 30
0.0
  0
VERTEX
  5
CD
330
CA
100
AcDbEntity
  8
Laag 1
 62
   250
370
     5
100
AcDbVertex
100
AcDb2dVertex
 10
174.9690910025742
 20
-61.24540316365111
 30
0.0
  0
VERTEX
  5
CE
330
CA
100
AcDbEntity
  8
Laag 1
 62
   250
370
     5
100
AcDbVertex
100
AcDb2dVertex
 10
174.9690910025742
 20
-64.24540316290107
 30
0.0
  0
VERTEX
  5
CF
330
CA
100
AcDbEntity
  8
Laag 1
 62
   250
370
     5
100
AcDbVertex
100
AcDb2dVertex
 10
169.9690910038247
 20
-64.24540316290107
 30
0.0
  0
SEQEND
  5
D0
330
CA
100
AcDbEntity
  8
Laag 1
 62
   250
370
     5
  0
POLYLINE
  5
D1
330
1F
100
AcDbEntity
  8
Laag 1
 62
   250
370
     5
100
AcDb2dPolyline
 66
     1
 10
0.0
 20
0.0
 30
0.0
  0
VERTEX
  5
D2
330
D1
100
AcDbEntity
  8
Laag 1
 62
   250
370
     5
100
AcDbVertex
100
AcDb2dVertex
 10
169.9690910038247
 20
-97.82003287970039
 30
0.0
  0
VERTEX
  5
D3
330
D1
100
AcDbEntity
  8
Laag 1
 62
   250
370
     5
100
AcDbVertex
100
AcDb2dVertex
 10
169.9690910038247
 20
-94.82003288045043
 30
0.0
  0
VERTEX
  5
D4
330
D1
100
AcDbEntity
  8
Laag 1
 62
   250
370
     5
100
AcDbVertex
100
AcDb2dVertex
 10
174.9690910025742
 20
-94.82003288045043
 30
0.0
  0
VERTEX
  5
D5
330
D1
100
AcDbEntity
  8
Laag 1
 62
   250
370
     5
100
AcDbVertex
100
AcDb2dVertex
 10
174.9690910025742
 20
-97.82003287970039
 30
0.0
  0
VERTEX
  5
D6
330
D1
100
AcDbEntity
  8
Laag 1
 62
   250
370
     5
100
AcDbVertex
100
AcDb2dVertex
 10
169.9690910038247
 20
-97.82003287970039
 30
0.0
  0
SEQEND
  5
D7
330
D1
100
AcDbEntity
  8
Laag 1
 62
   250
370
     5
  0
POLYLINE
  5
D8
330
1F
100
AcDbEntity
  8
Laag 1
 62
   250
370
     5
100
AcDb2dPolyline
 66
     1
 10
0.0
 20
0.0
 30
0.0
  0
VERTEX
  5
D9
330
D8
100
AcDbEntity
  8
Laag 1
 62
   250
370
     5
100
AcDbVertex
100
AcDb2dVertex
 10
157.1817761444251
 20
-81.65058430643779
 30
0.0
  0
VERTEX
  5
DA
330
D8
100
AcDbEntity
  8
Laag 1
 62
   250
370
     5
100
AcDbVertex
100
AcDb2dVertex
 10
154.1817761451751
 20
-81.65058430643779
 30
0.0
  0
VERTEX
  5
DB
330
D8
100
AcDbEntity
  8
Laag 1
 62
   250
370
     5
100
AcDbVertex
100
AcDb2dVertex
 10
154.1817761451751
 20
-76.65058430768829
 30
0.0
  0
VERTEX
  5
DC
330
D8
100
AcDbEntity
  8
Laag 1
 62
   250
370
     5
100
AcDbVertex
100
AcDb2dVertex
 10
157.1817761444251
 20
-76.65058430768829
 30
0.0
  0
VERTEX
  5
DD
330
D8
100
AcDbEntity
  8
Laag 1
 62
   250
370
     5
100
AcDbVertex
100
AcDb2dVertex
 10
157.1817761444251
 20
-81.65058430643779
 30
0.0
  0
SEQEND
  5
DE
330
D8
100
AcDbEntity
  8
Laag 1
 62
   250
370
     5
  0
POLYLINE
  5
DF
330
1F
100
AcDbEntity
  8
Laag 1
 62
   250
370
     5
100
AcDb2dPolyline
 66
     1
 10
0.0
 20
0.0
 30
0.0
  0
VERTEX
  5
E0
330
DF
100
AcDbEntity
  8
Laag 1
 62
   250
370
     5
100
AcDbVertex
100
AcDb2dVertex
 10
190.7564058612244
 20
-81.65058430643779
 30
0.0
  0
VERTEX
  5
E1
330
DF
100
AcDbEntity
  8
Laag 1
 62
   250
370
     5
100
AcDbVertex
100
AcDb2dVertex
 10
187.7564058619745
 20
-81.65058430643779
 30
0.0
  0
VERTEX
  5
E2
330
DF
100
AcDbEntity
  8
Laag 1
 62
   250
370
     5
100
AcDbVertex
100
AcDb2dVertex
 10
187.7564058619745
 20
-76.65058430768829
 30
0.0
  0
VERTEX
  5
E3
330
DF
100
AcDbEntity
  8
Laag 1
 62
   250
370
     5
100
AcDbVertex
100
AcDb2dVertex
 10
190.7564058612244
 20
-76.65058430768829
 30
0.0
  0
VERTEX
  5
E4
330
DF
100
AcDbEntity
  8
Laag 1
 62
   250
370
     5
100
AcDbVertex
100
AcDb2dVertex
 10
190.7564058612244
 20
-81.65058430643779
 30
0.0
  0
SEQEND
  5
E5
330
DF
100
AcDbEntity
  8
Laag 1
 62
   250
370
     5
  0
SPLINE
  5
E6
330
1F
100
AcDbEntity
  8
Laag 1
 62
   250
370
     5
100
AcDbSpline
210
0.0
220
0.0
230
1.0
 70
    11
 71
     3
 72
    47
 73
    43
 74
     0
 42
0.0000000001
 43
0.0000000001
 12
1.0
 22
0.0
 32
0.0
 13
1.0
 23
0.0
 33
0.0
 40
0.0
 40
0.0
 40
0.0
 40
0.0
 40
1.0
 40
1.0
 40
1.0
 40
2.0
 40
2.0
 40
2.0
 40
3.0
 40
3.0
 40
3.0
 40
4.0
 40
4.0
 40
4.0
 40
5.0
 40
5.0
 40
5.0
 40
6.0
 40
6.0
 40
6.0
 40
7.0
 40
7.0
 40
7.0
 40
8.0
 40
8.0
 40
8.0
 40
9.0
 40
9.0
 40
9.0
 40
10.0
 40
10.0
 40
10.0
 40
11.0
 40
11.0
 40
11.0
 40
12.0
 40
12.0
 40
12.0
 40
13.0
 40
13.0
 40
13.0
 40
14.0
 40
14.0
 40
14.0
 40
14.0
 10
92.03130302144898
 20
-106.2931744647364
 30
0.0
 10
92.03130302144898
 20
-106.2931744647364
 30
0.0
 10
92.03130302144898
 20
-117.2515279708401
 30
0.0
 10
92.03130302144898
 20
-117.2515279708401
 30
0.0
 10
92.03130302144898
 20
-117.2515279708401
 30
0.0
 10
89.03129234104664
 20
-117.2515279708401
 30
0.0
 10
89.03129234104664
 20
-117.2515279708401
 30
0.0
 10
89.03129234104664
 20
-117.2515279708401
 30
0.0
 10
89.03129234104664
 20
-106.0031189567252
 30
0.0
 10
89.03129234104664
 20
-106.0031189567252
 30
0.0
 10
89.03129234104664
 20
-106.0031189567252
 30
0.0
 10
62.9016426554675
 20
-106.0031189567252
 30
0.0
 10
62.9016426554675
 20
-106.0031189567252
 30
0.0
 10
62.9016426554675
 20
-106.0031189567252
 30
0.0
 10
62.9016426554675
 20
-117.2515279708401
 30
0.0
 10
62.9016426554675
 20
-117.2515279708401
 30
0.0
 10
62.9016426554675
 20
-117.2515279708401
 30
0.0
 10
59.90163197506516
 20
-117.2515279708401
 30
0.0
 10
59.90163197506516
 20
-117.2515279708401
 30
0.0
 10
59.90163197506516
 20
-117.2515279708401
 30
0.0
 10
59.90163197506516
 20
-106.3192064674968
 30
0.0
 10
59.90163197506516
 20
-106.3192064674968
 30
0.0
 10
56.21811435038925
 20
-107.3368230782993
 30
0.0
 10
53.51231482442724
 20
-110.7100452589881
 30
0.0
 10
53.51231482442724
 20
-114.7172726681968
 30
0.0
 10
53.51231482442724
 20
-114.7172726681968
 30
0.0
 10
53.51231482442724
 20
-119.7858048053303
 30
0.0
 10
53.51231482442724
 20
-119.7858048053303
 30
0.0
 10
53.51231482442724
 20
-124.5984955389904
 30
0.0
 10
57.41375627039199
 20
-128.4999585168019
 30
0.0
 10
62.2264470040521
 20
-128.4999585168019
 30
0.0
 10
62.2264470040521
 20
-128.4999585168019
 30
0.0
 10
89.79814906421646
 20
-128.4999585168019
 30
0.0
 10
89.79814906421646
 20
-128.4999585168019
 30
0.0
 10
94.61083979787658
 20
-128.4999585168019
 30
0.0
 10
98.5123027756881
 20
-124.5984955389904
 30
0.0
 10
98.5123027756881
 20
-119.7858048053303
 30
0.0
 10
98.5123027756881
 20
-119.7858048053303
 30
0.0
 10
98.5123027756881
 20
-114.7172726681968
 30
0.0
 10
98.5123027756881
 20
-114.7172726681968
 30
0.0
 10
98.5123027756881
 20
-110.6766924283215
 30
0.0
 10
95.76180313580498
 20
-107.2795698977038
 30
0.0
 10
92.03130302144898
 20
-106.2931744647364
 30
0.0
  0
SPLINE
  5
E7
330
1F
100
AcDbEntity
  8
Laag 1
 62
   250
370
     5
100
AcDbSpline
210
0.0
220
0.0
230
1.0
 70
    11
 71
     3
 72
    47
 73
    43
 74
     0
 42
0.0000000001
 43
0.0000000001
 12
1.0
 22
0.0
 32
0.0
 13
1.0
 23
0.0
 33
0.0
 40
0.0
 40
0.0
 40
0.0
 40
0.0
 40
1.0
 40
1.0
 40
1.0
 40
2.0
 40
2.0
 40
2.0
 40
3.0
 40
3.0
 40
3.0
 40
4.0
 40
4.0
 40
4.0
 40
5.0
 40
5.0
 40
5.0
 40
6.0
 40
6.0
 40
6.0
 40
7.0
 40
7.0
 40
7.0
 40
8.0
 40
8.0
 40
8.0
 40
9.0
 40
9.0
 40
9.0
 40
10.0
 40
10.0
 40
10.0
 40
11.0
 40
11.0
 40
11.0
 40
12.0
 40
12.0
 40
12.0
 40
13.0
 40
13.0
 40
13.0
 40
14.0
 40
14.0
 40
14.0
 40
14.0
 10
43.54990316820349
 20
-106.2931744647364
 30
0.0
 10
43.54990316820349
 20
-106.2931744647364
 30
0.0
 10
43.54990316820349
 20
-117.2515279708401
 30
0.0
 10
43.54990316820349
 20
-117.2515279708401
 30
0.0
 10
43.54990316820349
 20
-117.2515279708401
 30
0.0
 10
40.54989248780114
 20
-117.2515279708401
 30
0.0
 10
40.54989248780114
 20
-117.2515279708401
 30
0.0
 10
40.54989248780114
 20
-117.2515279708401
 30
0.0
 10
40.54989248780114
 20
-106.0031189567252
 30
0.0
 10
40.54989248780114
 20
-106.0031189567252
 30
0.0
 10
40.54989248780114
 20
-106.0031189567252
 30
0.0
 10
14.42024280222201
 20
-106.0031189567252
 30
0.0
 10
14.42024280222201
 20
-106.0031189567252
 30
0.0
 10
14.42024280222201
 20
-106.0031189567252
 30
0.0
 10
14.42024280222201
 20
-117.2515279708401
 30
0.0
 10
14.42024280222201
 20
-117.2515279708401
 30
0.0
 10
14.42024280222201
 20
-117.2515279708401
 30
0.0
 10
11.42023212181967
 20
-117.2515279708401
 30
0.0
 10
11.42023212181967
 20
-117.2515279708401
 30
0.0
 10
11.42023212181967
 20
-117.2515279708401
 30
0.0
 10
11.42023212181967
 20
-106.3192064674968
 30
0.0
 10
11.42023212181967
 20
-106.3192064674968
 30
0.0
 10
7.736714497143757
 20
-107.3368230782993
 30
0.0
 10
5.030914971181752
 20
-110.7100452589881
 30
0.0
 10
5.030914971181752
 20
-114.7172726681968
 30
0.0
 10
5.030914971181752
 20
-114.7172726681968
 30
0.0
 10
5.030914971181752
 20
-119.7858048053303
 30
0.0
 10
5.030914971181752
 20
-119.7858048053303
 30
0.0
 10
5.030914971181752
 20
-124.5984955389904
 30
0.0
 10
8.932356417146496
 20
-128.4999585168019
 30
0.0
 10
13.7450471508066
 20
-128.4999585168019
 30
0.0
 10
13.7450471508066
 20
-128.4999585168019
 30
0.0
 10
41.31674921097098
 20
-128.4999585168019
 30
0.0
 10
41.31674921097098
 20
-128.4999585168019
 30
0.0
 10
46.12943994463108
 20
-128.4999585168019
 30
0.0
 10
50.03090292244261
 20
-124.5984955389904
 30
0.0
 10
50.03090292244261
 20
-119.7858048053303
 30
0.0
 10
50.03090292244261
 20
-119.7858048053303
 30
0.0
 10
50.03090292244261
 20
-114.7172726681968
 30
0.0
 10
50.03090292244261
 20
-114.7172726681968
 30
0.0
 10
50.03090292244261
 20
-110.6766924283215
 30
0.0
 10
47.28040328255948
 20
-107.2795698977038
 30
0.0
 10
43.54990316820349
 20
-106.2931744647364
 30
0.0
  0
POLYLINE
  5
E8
330
1F
100
AcDbEntity
  8
Laag 1
 62
   250
370
     5
100
AcDb2dPolyline
 66
     1
 10
0.0
 20
0.0
 30
0.0
  0
VERTEX
  5
E9
330
E8
100
AcDbEntity
  8
Laag 1
 62
   250
370
     5
100
AcDbVertex
100
AcDb2dVertex
 10
14.30120224532221
 20
-125.5967851986704
 30
0.0
  0
VERTEX
  5
EA
330
E8
100
AcDbEntity
  8
Laag 1
 62
   250
370
     5
100
AcDbVertex
100
AcDb2dVertex
 10
11.30120224607225
 20
-125.5967851986704
 30
0.0
  0
VERTEX
  5
EB
330
E8
100
AcDbEntity
  8
Laag 1
 62
   250
370
     5
100
AcDbVertex
100
AcDb2dVertex
 10
11.30120224607225
 20
-120.5967851999209
 30
0.0
  0
VERTEX
  5
EC
330
E8
100
AcDbEntity
  8
Laag 1
 62
   250
370
     5
100
AcDbVertex
100
AcDb2dVertex
 10
14.30120224532221
 20
-120.5967851999209
 30
0.0
  0
VERTEX
  5
ED
330
E8
100
AcDbEntity
  8
Laag 1
 62
   250
370
     5
100
AcDbVertex
100
AcDb2dVertex
 10
14.30120224532221
 20
-125.5967851986704
 30
0.0
  0
SEQEND
  5
EE
330
E8
100
AcDbEntity
  8
Laag 1
 62
   250
370
     5
  0
POLYLINE
  5
EF
330
1F
100
AcDbEntity
  8
Laag 1
 62
   250
370
     5
100
AcDb2dPolyline
 66
     1
 10
0.0
 20
0.0
 30
0.0
  0
VERTEX
  5
F0
330
EF
100
AcDbEntity
  8
Laag 1
 62
   250
370
     5
100
AcDbVertex
100
AcDb2dVertex
 10
43.4646316565121
 20
-125.5967851986704
 30
0.0
  0
VERTEX
  5
F1
330
EF
100
AcDbEntity
  8
Laag 1
 62
   250
370
     5
100
AcDbVertex
100
AcDb2dVertex
 10
40.46463165726213
 20
-125.5967851986704
 30
0.0
  0
VERTEX
  5
F2
330
EF
100
AcDbEntity
  8
Laag 1
 62
   250
370
     5
100
AcDbVertex
100
AcDb2dVertex
 10
40.46463165726213
 20
-120.5967851999209
 30
0.0
  0
VERTEX
  5
F3
330
EF
100
AcDbEntity
  8
Laag 1
 62
   250
370
     5
100
AcDbVertex
100
AcDb2dVertex
 10
43.4646316565121
 20
-120.5967851999209
 30
0.0
  0
VERTEX
  5
F4
330
EF
100
AcDbEntity
  8
Laag 1
 62
   250
370
     5
100
AcDbVertex
100
AcDb2dVertex
 10
43.4646316565121
 20
-125.5967851986704
 30
0.0
  0
SEQEND
  5
F5
330
EF
100
AcDbEntity
  8
Laag 1
 62
   250
370
     5
  0
POLYLINE
  5
F6
330
1F
100
AcDbEntity
  8
Laag 1
 62
   250
370
     5
100
AcDb2dPolyline
 66
     1
 10
0.0
 20
0.0
 30
0.0
  0
VERTEX
  5
F7
330
F6
100
AcDbEntity
  8
Laag 1
 62
   250
370
     5
100
AcDbVertex
100
AcDb2dVertex
 10
73.51230777106076
 20
-119.5432835145264
 30
0.0
  0
VERTEX
  5
F8
330
F6
100
AcDbEntity
  8
Laag 1
 62
   250
370
     5
100
AcDbVertex
100
AcDb2dVertex
 10
73.51230777106076
 20
-116.5432835152764
 30
0.0
  0
VERTEX
  5
F9
330
F6
100
AcDbEntity
  8
Laag 1
 62
   250
370
     5
100
AcDbVertex
100
AcDb2dVertex
 10
78.51230776981028
 20
-116.5432835152764
 30
0.0
  0
VERTEX
  5
FA
330
F6
100
AcDbEntity
  8
Laag 1
 62
   250
370
     5
100
AcDbVertex
100
AcDb2dVertex
 10
78.51230776981028
 20
-119.5432835145264
 30
0.0
  0
VERTEX
  5
FB
330
F6
100
AcDbEntity
  8
Laag 1
 62
   250
370
     5
100
AcDbVertex
100
AcDb2dVertex
 10
73.51230777106076
 20
-119.5432835145264
 30
0.0
  0
SEQEND
  5
FC
330
F6
100
AcDbEntity
  8
Laag 1
 62
   250
370
     5
  0
SPLINE
  5
FD
330
1F
100
AcDbEntity
  8
Laag 1
 62
   250
370
     5
100
AcDbSpline
210
0.0
220
0.0
230
1.0
 70
    11
 71
     3
 72
    71
 73
    67
 74
     0
 42
0.0000000001
 43
0.0000000001
 12
1.0
 22
0.0
 32
0.0
 13
1.0
 23
0.0
 33
0.0
 40
0.0
 40
0.0
 40
0.0
 40
0.0
 40
1.0
 40
1.0
 40
1.0
 40
2.0
 40
2.0
 40
2.0
 40
3.0
 40
3.0
 40
3.0
 40
4.0
 40
4.0
 40
4.0
 40
5.0
 40
5.0
 40
5.0
 40
6.0
 40
6.0
 40
6.0
 40
7.0
 40
7.0
 40
7.0
 40
8.0
 40
8.0
 40
8.0
 40
9.0
 40
9.0
 40
9.0
 40
10.0
 40
10.0
 40
10.0
 40
11.0
 40
11.0
 40
11.0
 40
12.0
 40
12.0
 40
12.0
 40
13.0
 40
13.0
 40
13.0
 40
14.0
 40
14.0
 40
14.0
 40
15.0
 40
15.0
 40
15.0
 40
16.0
 40
16.0
 40
16.0
 40
17.0
 40
17.0
 40
17.0
 40
18.0
 40
18.0
 40
18.0
 40
19.0
 40
19.0
 40
19.0
 40
20.0
 40
20.0
 40
20.0
 40
21.0
 40
21.0
 40
21.0
 40
22.0
 40
22.0
 40
22.0
 40
22.0
 10
50.19957367383791
 20
-98.34793749575807
 30
0.0
 10
50.19957367383791
 20
-98.34793749575807
 30
0.0
 10
50.19957367383791
 20
-67.04782391037564
 30
0.0
 10
50.19957367383791
 20
-67.04782391037564
 30
0.0
 10
50.19957367383791
 20
-67.04782391037564
 30
0.0
 10
40.21478262001901
 20
-77.03261496419454
 30
0.0
 10
40.21478262001901
 20
-77.03261496419454
 30
0.0
 10
40.21478262001901
 20
-77.03261496419454
 30
0.0
 10
38.09346507497642
 20
-74.91129741915195
 30
0.0
 10
38.09346507497642
 20
-74.91129741915195
 30
0.0
 10
38.09346507497642
 20
-74.91129741915195
 30
0.0
 10
50.19957367383791
 20
-62.80518882029046
 30
0.0
 10
50.19957367383791
 20
-62.80518882029046
 30
0.0
 10
50.19957367383791
 20
-62.80518882029046
 30
0.0
 10
50.19957367383791
 20
-57.57142129094569
 30
0.0
 10
50.19957367383791
 20
-57.57142129094569
 30
0.0
 10
50.19957367383791
 20
-57.57142129094569
 30
0.0
 10
37.62041040115805
 20
-70.15056303177877
 30
0.0
 10
37.62041040115805
 20
-70.15056303177877
 30
0.0
 10
37.62041040115805
 20
-70.15056303177877
 30
0.0
 10
35.49909285611546
 20
-68.02924548673619
 30
0.0
 10
35.49909285611546
 20
-68.02924548673619
 30
0.0
 10
35.49909285611546
 20
-68.02924548673619
 30
0.0
 10
47.93842831578775
 20
-55.58993155891068
 30
0.0
 10
47.93842831578775
 20
-55.58993155891068
 30
0.0
 10
47.93842831578775
 20
-55.58993155891068
 30
0.0
 10
42.52465454733867
 20
-55.58993155891068
 30
0.0
 10
42.52465454733867
 20
-55.58993155891068
 30
0.0
 10
42.52465454733867
 20
-55.58993155891068
 30
0.0
 10
30.00395023867414
 20
-68.11063586757521
 30
0.0
 10
30.00395023867414
 20
-68.11063586757521
 30
0.0
 10
30.00395023867414
 20
-68.11063586757521
 30
0.0
 10
27.88263269363156
 20
-65.98931832253263
 30
0.0
 10
27.88263269363156
 20
-65.98931832253263
 30
0.0
 10
27.88263269363156
 20
-65.98931832253263
 30
0.0
 10
38.2820194572535
 20
-55.58993155891068
 30
0.0
 10
38.2820194572535
 20
-55.58993155891068
 30
0.0
 10
38.2820194572535
 20
-55.58993155891068
 30
0.0
 10
7.378976004133311
 20
-55.58993155891068
 30
0.0
 10
7.378976004133311
 20
-55.58993155891068
 30
0.0
 10
7.378976004133311
 20
-55.58993155891068
 30
0.0
 10
27.72723735540001
 20
-75.93817272407101
 30
0.0
 10
27.72723735540001
 20
-75.93817272407101
 30
0.0
 10
27.72723735540001
 20
-75.93817272407101
 30
0.0
 10
25.60591981035742
 20
-78.05949026911361
 30
0.0
 10
25.60591981035742
 20
-78.05949026911361
 30
0.0
 10
25.60591981035742
 20
-78.05949026911361
 30
0.0
 10
5.199587068317481
 20
-57.65317771318002
 30
0.0
 10
5.199587068317481
 20
-57.65317771318002
 30
0.0
 10
5.199587068317481
 20
-64.33652299756062
 30
0.0
 10
5.199587068317481
 20
-71.01986828194121
 30
0.0
 10
5.199587068317481
 20
-77.7032135663218
 30
0.0
 10
12.65551654711214
 20
-85.33211913624618
 30
0.0
 10
20.11144468016637
 20
-92.96102470617056
 30
0.0
 10
27.56737415896102
 20
-100.5899302760949
 30
0.0
 10
34.44455720252303
 20
-100.5899302760949
 30
0.0
 10
41.32173755460419
 20
-100.5899195101715
 30
0.0
 10
48.1989205981662
 20
-100.5899195101715
 30
0.0
 10
41.40603204327805
 20
-93.79703095528339
 30
0.0
 10
34.6131434883899
 20
-87.00414240039524
 30
0.0
 10
27.82025493350175
 20
-80.21125384550709
 30
0.0
 10
27.82025493350175
 20
-80.21125384550709
 30
0.0
 10
29.94157247854434
 20
-78.0899363004645
 30
0.0
 10
29.94157247854434
 20
-78.0899363004645
 30
0.0
 10
29.94157247854434
 20
-78.0899363004645
 30
0.0
 10
50.19957367383791
 20
-98.34793749575807
 30
0.0
 10
50.19957367383791
 20
-98.34793749575807
 30
0.0
  0
SPLINE
  5
FE
330
1F
100
AcDbEntity
  8
Laag 1
 62
   250
370
     5
100
AcDbSpline
210
0.0
220
0.0
230
1.0
 70
    11
 71
     3
 72
    71
 73
    67
 74
     0
 42
0.0000000001
 43
0.0000000001
 12
1.0
 22
0.0
 32
0.0
 13
1.0
 23
0.0
 33
0.0
 40
0.0
 40
0.0
 40
0.0
 40
0.0
 40
1.0
 40
1.0
 40
1.0
 40
2.0
 40
2.0
 40
2.0
 40
3.0
 40
3.0
 40
3.0
 40
4.0
 40
4.0
 40
4.0
 40
5.0
 40
5.0
 40
5.0
 40
6.0
 40
6.0
 40
6.0
 40
7.0
 40
7.0
 40
7.0
 40
8.0
 40
8.0
 40
8.0
 40
9.0
 40
9.0
 40
9.0
 40
10.0
 40
10.0
 40
10.0
 40
11.0
 40
11.0
 40
11.0
 40
12.0
 40
12.0
 40
12.0
 40
13.0
 40
13.0
 40
13.0
 40
14.0
 40
14.0
 40
14.0
 40
15.0
 40
15.0
 40
15.0
 40
16.0
 40
16.0
 40
16.0
 40
17.0
 40
17.0
 40
17.0
 40
18.0
 40
18.0
 40
18.0
 40
19.0
 40
19.0
 40
19.0
 40
20.0
 40
20.0
 40
20.0
 40
21.0
 40
21.0
 40
21.0
 40
22.0
 40
22.0
 40
22.0
 40
22.0
 10
98.42796497739914
 20
-98.34793749575775
 30
0.0
 10
98.42796497739914
 20
-98.34793749575775
 30
0.0
 10
98.42796497739914
 20
-67.04782391037531
 30
0.0
 10
98.42796497739914
 20
-67.04782391037531
 30
0.0
 10
98.42796497739914
 20
-67.04782391037531
 30
0.0
 10
88.44317392358023
 20
-77.03261496419422
 30
0.0
 10
88.44317392358023
 20
-77.03261496419422
 30
0.0
 10
88.44317392358023
 20
-77.03261496419422
 30
0.0
 10
86.32185637853765
 20
-74.91129741915164
 30
0.0
 10
86.32185637853765
 20
-74.91129741915164
 30
0.0
 10
86.32185637853765
 20
-74.91129741915164
 30
0.0
 10
98.42796497739914
 20
-62.80518882029014
 30
0.0
 10
98.42796497739914
 20
-62.80518882029014
 30
0.0
 10
98.42796497739914
 20
-62.80518882029014
 30
0.0
 10
98.42796497739914
 20
-57.57142129094537
 30
0.0
 10
98.42796497739914
 20
-57.57142129094537
 30
0.0
 10
98.42796497739914
 20
-57.57142129094537
 30
0.0
 10
85.84880170471928
 20
-70.15056303177845
 30
0.0
 10
85.84880170471928
 20
-70.15056303177845
 30
0.0
 10
85.84880170471928
 20
-70.15056303177845
 30
0.0
 10
83.72748415967669
 20
-68.02924548673586
 30
0.0
 10
83.72748415967669
 20
-68.02924548673586
 30
0.0
 10
83.72748415967669
 20
-68.02924548673586
 30
0.0
 10
96.16681961934898
 20
-55.58993155891036
 30
0.0
 10
96.16681961934898
 20
-55.58993155891036
 30
0.0
 10
96.16681961934898
 20
-55.58993155891036
 30
0.0
 10
90.75304585089991
 20
-55.58993155891036
 30
0.0
 10
90.75304585089991
 20
-55.58993155891036
 30
0.0
 10
90.75304585089991
 20
-55.58993155891036
 30
0.0
 10
78.23234154223537
 20
-68.11063586757489
 30
0.0
 10
78.23234154223537
 20
-68.11063586757489
 30
0.0
 10
78.23234154223537
 20
-68.11063586757489
 30
0.0
 10
76.11102399719279
 20
-65.9893183225323
 30
0.0
 10
76.11102399719279
 20
-65.9893183225323
 30
0.0
 10
76.11102399719279
 20
-65.9893183225323
 30
0.0
 10
86.51041076081474
 20
-55.58993155891036
 30
0.0
 10
86.51041076081474
 20
-55.58993155891036
 30
0.0
 10
86.51041076081474
 20
-55.58993155891036
 30
0.0
 10
55.60736730769454
 20
-55.58993155891036
 30
0.0
 10
55.60736730769454
 20
-55.58993155891036
 30
0.0
 10
55.60736730769454
 20
-55.58993155891036
 30
0.0
 10
75.95562865896123
 20
-75.9381727240707
 30
0.0
 10
75.95562865896123
 20
-75.9381727240707
 30
0.0
 10
75.95562865896123
 20
-75.9381727240707
 30
0.0
 10
73.83431111391864
 20
-78.05949026911328
 30
0.0
 10
73.83431111391864
 20
-78.05949026911328
 30
0.0
 10
73.83431111391864
 20
-78.05949026911328
 30
0.0
 10
53.42797837187871
 20
-57.6531777131797
 30
0.0
 10
53.42797837187871
 20
-57.6531777131797
 30
0.0
 10
53.42797837187871
 20
-64.3365229975603
 30
0.0
 10
53.42797837187871
 20
-71.0198682819409
 30
0.0
 10
53.42797837187871
 20
-77.7032135663215
 30
0.0
 10
60.88390785067337
 20
-85.33211913624586
 30
0.0
 10
68.3398359837276
 20
-92.96102470617024
 30
0.0
 10
75.79576546252225
 20
-100.5899302760949
 30
0.0
 10
82.67294850608427
 20
-100.5899302760949
 30
0.0
 10
89.55012885816542
 20
-100.5899195101715
 30
0.0
 10
96.42731190172744
 20
-100.5899195101715
 30
0.0
 10
89.63442334683928
 20
-93.79703095528306
 30
0.0
 10
82.84153479195113
 20
-87.00414240039491
 30
0.0
 10
76.04864623706298
 20
-80.21125384550676
 30
0.0
 10
76.04864623706298
 20
-80.21125384550676
 30
0.0
 10
78.16996378210557
 20
-78.08993630046417
 30
0.0
 10
78.16996378210557
 20
-78.08993630046417
 30
0.0
 10
78.16996378210557
 20
-78.08993630046417
 30
0.0
 10
98.42796497739914
 20
-98.34793749575775
 30
0.0
 10
98.42796497739914
 20
-98.34793749575775
 30
0.0
  0
POLYLINE
  5
FF
330
1F
100
AcDbEntity
  8
Laag 1
 62
   250
370
     5
100
AcDb2dPolyline
 66
     1
 10
0.0
 20
0.0
 30
0.0
  0
VERTEX
  5
100
330
FF
100
AcDbEntity
  8
Laag 1
 62
   250
370
     5
100
AcDbVertex
100
AcDb2dVertex
 10
134.0043741220763
 20
-126.3032622200576
 30
0.0
  0
VERTEX
  5
101
330
FF
100
AcDbEntity
  8
Laag 1
 62
   250
370
     5
100
AcDbVertex
100
AcDb2dVertex
 10
131.004363441674
 20
-126.3032622200576
 30
0.0
  0
VERTEX
  5
102
330
FF
100
AcDbEntity
  8
Laag 1
 62
   250
370
     5
100
AcDbVertex
100
AcDb2dVertex
 10
131.004363441674
 20
-122.8032605255116
 30
0.0
  0
VERTEX
  5
103
330
FF
100
AcDbEntity
  8
Laag 1
 62
   250
370
     5
100
AcDbVertex
100
AcDb2dVertex
 10
128.0043742931184
 20
-122.8032605255116
 30
0.0
  0
VERTEX
  5
104
330
FF
100
AcDbEntity
  8
Laag 1
 62
   250
370
     5
100
AcDbVertex
100
AcDb2dVertex
 10
128.0043742931184
 20
-126.3032622200576
 30
0.0
  0
VERTEX
  5
105
330
FF
100
AcDbEntity
  8
Laag 1
 62
   250
370
     5
100
AcDbVertex
100
AcDb2dVertex
 10
110.0043748062447
 20
-126.3032622200576
 30
0.0
  0
VERTEX
  5
106
330
FF
100
AcDbEntity
  8
Laag 1
 62
   250
370
     5
100
AcDbVertex
100
AcDb2dVertex
 10
110.0043748062447
 20
-122.8032605255116
 30
0.0
  0
VERTEX
  5
107
330
FF
100
AcDbEntity
  8
Laag 1
 62
   250
370
     5
100
AcDbVertex
100
AcDb2dVertex
 10
107.0043641258424
 20
-122.8032605255116
 30
0.0
  0
VERTEX
  5
108
330
FF
100
AcDbEntity
  8
Laag 1
 62
   250
370
     5
100
AcDbVertex
100
AcDb2dVertex
 10
107.0043641258424
 20
-126.3032622200576
 30
0.0
  0
VERTEX
  5
109
330
FF
100
AcDbEntity
  8
Laag 1
 62
   250
370
     5
100
AcDbVertex
100
AcDb2dVertex
 10
104.0043749772868
 20
-126.3032622200576
 30
0.0
  0
VERTEX
  5
10A
330
FF
100
AcDbEntity
  8
Laag 1
 62
   250
370
     5
100
AcDbVertex
100
AcDb2dVertex
 10
104.0043749772868
 20
-131.3032584888814
 30
0.0
  0
VERTEX
  5
10B
330
FF
100
AcDbEntity
  8
Laag 1
 62
   250
370
     5
100
AcDbVertex
100
AcDb2dVertex
 10
107.0043641258424
 20
-131.3032584888814
 30
0.0
  0
VERTEX
  5
10C
330
FF
100
AcDbEntity
  8
Laag 1
 62
   250
370
     5
100
AcDbVertex
100
AcDb2dVertex
 10
107.0043641258424
 20
-134.8032601834274
 30
0.0
  0
VERTEX
  5
10D
330
FF
100
AcDbEntity
  8
Laag 1
 62
   250
370
     5
100
AcDbVertex
100
AcDb2dVertex
 10
110.0043748062447
 20
-134.8032601834274
 30
0.0
  0
VERTEX
  5
10E
330
FF
100
AcDbEntity
  8
Laag 1
 62
   250
370
     5
100
AcDbVertex
100
AcDb2dVertex
 10
110.0043748062447
 20
-131.3032584888814
 30
0.0
  0
VERTEX
  5
10F
330
FF
100
AcDbEntity
  8
Laag 1
 62
   250
370
     5
100
AcDbVertex
100
AcDb2dVertex
 10
128.0043742931184
 20
-131.3032584888814
 30
0.0
  0
VERTEX
  5
110
330
FF
100
AcDbEntity
  8
Laag 1
 62
   250
370
     5
100
AcDbVertex
100
AcDb2dVertex
 10
128.0043742931184
 20
-134.8032601834274
 30
0.0
  0
VERTEX
  5
111
330
FF
100
AcDbEntity
  8
Laag 1
 62
   250
370
     5
100
AcDbVertex
100
AcDb2dVertex
 10
131.004363441674
 20
-134.8032601834274
 30
0.0
  0
VERTEX
  5
112
330
FF
100
AcDbEntity
  8
Laag 1
 62
   250
370
     5
100
AcDbVertex
100
AcDb2dVertex
 10
131.004363441674
 20
-131.3032584888814
 30
0.0
  0
VERTEX
  5
113
330
FF
100
AcDbEntity
  8
Laag 1
 62
   250
370
     5
100
AcDbVertex
100
AcDb2dVertex
 10
134.0043741220763
 20
-131.3032584888814
 30
0.0
  0
VERTEX
  5
114
330
FF
100
AcDbEntity
  8
Laag 1
 62
   250
370
     5
100
AcDbVertex
100
AcDb2dVertex
 10
134.0043741220763
 20
-126.3032622200576
 30
0.0
  0
SEQEND
  5
115
330
FF
100
AcDbEntity
  8
Laag 1
 62
   250
370
     5
  0
POLYLINE
  5
116
330
1F
100
AcDbEntity
  8
Laag 1
 62
   250
370
     5
100
AcDb2dPolyline
 66
     1
 10
0.0
 20
0.0
 30
0.0
  0
VERTEX
  5
117
330
116
100
AcDbEntity
  8
Laag 1
 62
   250
370
     5
100
AcDbVertex
100
AcDb2dVertex
 10
134.0043741220763
 20
-111.0432855511566
 30
0.0
  0
VERTEX
  5
118
330
116
100
AcDbEntity
  8
Laag 1
 62
   250
370
     5
100
AcDbVertex
100
AcDb2dVertex
 10
131.004363441674
 20
-111.0432855511566
 30
0.0
  0
VERTEX
  5
119
330
116
100
AcDbEntity
  8
Laag 1
 62
   250
370
     5
100
AcDbVertex
100
AcDb2dVertex
 10
131.004363441674
 20
-107.5432838566106
 30
0.0
  0
VERTEX
  5
11A
330
116
100
AcDbEntity
  8
Laag 1
 62
   250
370
     5
100
AcDbVertex
100
AcDb2dVertex
 10
128.0043742931184
 20
-107.5432838566106
 30
0.0
  0
VERTEX
  5
11B
330
116
100
AcDbEntity
  8
Laag 1
 62
   250
370
     5
100
AcDbVertex
100
AcDb2dVertex
 10
128.0043742931184
 20
-111.0432855511566
 30
0.0
  0
VERTEX
  5
11C
330
116
100
AcDbEntity
  8
Laag 1
 62
   250
370
     5
100
AcDbVertex
100
AcDb2dVertex
 10
110.0043748062447
 20
-111.0432855511566
 30
0.0
  0
VERTEX
  5
11D
330
116
100
AcDbEntity
  8
Laag 1
 62
   250
370
     5
100
AcDbVertex
100
AcDb2dVertex
 10
110.0043748062447
 20
-107.5432838566106
 30
0.0
  0
VERTEX
  5
11E
330
116
100
AcDbEntity
  8
Laag 1
 62
   250
370
     5
100
AcDbVertex
100
AcDb2dVertex
 10
107.0043641258424
 20
-107.5432838566106
 30
0.0
  0
VERTEX
  5
11F
330
116
100
AcDbEntity
  8
Laag 1
 62
   250
370
     5
100
AcDbVertex
100
AcDb2dVertex
 10
107.0043641258424
 20
-111.0432855511566
 30
0.0
  0
VERTEX
  5
120
330
116
100
AcDbEntity
  8
Laag 1
 62
   250
370
     5
100
AcDbVertex
100
AcDb2dVertex
 10
104.0043749772868
 20
-111.0432855511566
 30
0.0
  0
VERTEX
  5
121
330
116
100
AcDbEntity
  8
Laag 1
 62
   250
370
     5
100
AcDbVertex
100
AcDb2dVertex
 10
104.0043749772868
 20
-116.0432818199804
 30
0.0
  0
VERTEX
  5
122
330
116
100
AcDbEntity
  8
Laag 1
 62
   250
370
     5
100
AcDbVertex
100
AcDb2dVertex
 10
107.0043641258424
 20
-116.0432818199804
 30
0.0
  0
VERTEX
  5
123
330
116
100
AcDbEntity
  8
Laag 1
 62
   250
370
     5
100
AcDbVertex
100
AcDb2dVertex
 10
107.0043641258424
 20
-119.5432835145264
 30
0.0
  0
VERTEX
  5
124
330
116
100
AcDbEntity
  8
Laag 1
 62
   250
370
     5
100
AcDbVertex
100
AcDb2dVertex
 10
110.0043748062447
 20
-119.5432835145264
 30
0.0
  0
VERTEX
  5
125
330
116
100
AcDbEntity
  8
Laag 1
 62
   250
370
     5
100
AcDbVertex
100
AcDb2dVertex
 10
110.0043748062447
 20
-116.0432818199804
 30
0.0
  0
VERTEX
  5
126
330
116
100
AcDbEntity
  8
Laag 1
 62
   250
370
     5
100
AcDbVertex
100
AcDb2dVertex
 10
128.0043742931184
 20
-116.0432818199804
 30
0.0
  0
VERTEX
  5
127
330
116
100
AcDbEntity
  8
Laag 1
 62
   250
370
     5
100
AcDbVertex
100
AcDb2dVertex
 10
128.0043742931184
 20
-119.5432835145264
 30
0.0
  0
VERTEX
  5
128
330
116
100
AcDbEntity
  8
Laag 1
 62
   250
370
     5
100
AcDbVertex
100
AcDb2dVertex
 10
131.004363441674
 20
-119.5432835145264
 30
0.0
  0
VERTEX
  5
129
330
116
100
AcDbEntity
  8
Laag 1
 62
   250
370
     5
100
AcDbVertex
100
AcDb2dVertex
 10
131.004363441674
 20
-116.0432818199804
 30
0.0
  0
VERTEX
  5
12A
330
116
100
AcDbEntity
  8
Laag 1
 62
   250
370
     5
100
AcDbVertex
100
AcDb2dVertex
 10
134.0043741220763
 20
-116.0432818199804
 30
0.0
  0
VERTEX
  5
12B
330
116
100
AcDbEntity
  8
Laag 1
 62
   250
370
     5
100
AcDbVertex
100
AcDb2dVertex
 10
134.0043741220763
 20
-111.0432855511566
 30
0.0
  0
SEQEND
  5
12C
330
116
100
AcDbEntity
  8
Laag 1
 62
   250
370
     5
  0
POLYLINE
  5
12D
330
1F
100
AcDbEntity
  8
Laag 1
 62
   250
370
     5
100
AcDb2dPolyline
 66
     1
 10
0.0
 20
0.0
 30
0.0
  0
VERTEX
  5
12E
330
12D
100
AcDbEntity
  8
Laag 1
 62
   250
370
     5
100
AcDbVertex
100
AcDb2dVertex
 10
166.7386375036866
 20
-111.0432855511566
 30
0.0
  0
VERTEX
  5
12F
330
12D
100
AcDbEntity
  8
Laag 1
 62
   250
370
     5
100
AcDbVertex
100
AcDb2dVertex
 10
163.7386268232843
 20
-111.0432855511566
 30
0.0
  0
VERTEX
  5
130
330
12D
100
AcDbEntity
  8
Laag 1
 62
   250
370
     5
100
AcDbVertex
100
AcDb2dVertex
 10
163.7386268232843
 20
-107.5432838566106
 30
0.0
  0
VERTEX
  5
131
330
12D
100
AcDbEntity
  8
Laag 1
 62
   250
370
     5
100
AcDbVertex
100
AcDb2dVertex
 10
160.7386376747287
 20
-107.5432838566106
 30
0.0
  0
VERTEX
  5
132
330
12D
100
AcDbEntity
  8
Laag 1
 62
   250
370
     5
100
AcDbVertex
100
AcDb2dVertex
 10
160.7386376747287
 20
-111.0432855511566
 30
0.0
  0
VERTEX
  5
133
330
12D
100
AcDbEntity
  8
Laag 1
 62
   250
370
     5
100
AcDbVertex
100
AcDb2dVertex
 10
142.738638187855
 20
-111.0432855511566
 30
0.0
  0
VERTEX
  5
134
330
12D
100
AcDbEntity
  8
Laag 1
 62
   250
370
     5
100
AcDbVertex
100
AcDb2dVertex
 10
142.738638187855
 20
-107.5432838566106
 30
0.0
  0
VERTEX
  5
135
330
12D
100
AcDbEntity
  8
Laag 1
 62
   250
370
     5
100
AcDbVertex
100
AcDb2dVertex
 10
139.7386275074527
 20
-107.5432838566106
 30
0.0
  0
VERTEX
  5
136
330
12D
100
AcDbEntity
  8
Laag 1
 62
   250
370
     5
100
AcDbVertex
100
AcDb2dVertex
 10
139.7386275074527
 20
-111.0432855511566
 30
0.0
  0
VERTEX
  5
137
330
12D
100
AcDbEntity
  8
Laag 1
 62
   250
370
     5
100
AcDbVertex
100
AcDb2dVertex
 10
136.7386383588971
 20
-111.0432855511566
 30
0.0
  0
VERTEX
  5
138
330
12D
100
AcDbEntity
  8
Laag 1
 62
   250
370
     5
100
AcDbVertex
100
AcDb2dVertex
 10
136.7386383588971
 20
-116.0432818199804
 30
0.0
  0
VERTEX
  5
139
330
12D
100
AcDbEntity
  8
Laag 1
 62
   250
370
     5
100
AcDbVertex
100
AcDb2dVertex
 10
139.7386275074527
 20
-116.0432818199804
 30
0.0
  0
VERTEX
  5
13A
330
12D
100
AcDbEntity
  8
Laag 1
 62
   250
370
     5
100
AcDbVertex
100
AcDb2dVertex
 10
139.7386275074527
 20
-119.5432835145264
 30
0.0
  0
VERTEX
  5
13B
330
12D
100
AcDbEntity
  8
Laag 1
 62
   250
370
     5
100
AcDbVertex
100
AcDb2dVertex
 10
142.738638187855
 20
-119.5432835145264
 30
0.0
  0
VERTEX
  5
13C
330
12D
100
AcDbEntity
  8
Laag 1
 62
   250
370
     5
100
AcDbVertex
100
AcDb2dVertex
 10
142.738638187855
 20
-116.0432818199804
 30
0.0
  0
VERTEX
  5
13D
330
12D
100
AcDbEntity
  8
Laag 1
 62
   250
370
     5
100
AcDbVertex
100
AcDb2dVertex
 10
160.7386376747287
 20
-116.0432818199804
 30
0.0
  0
VERTEX
  5
13E
330
12D
100
AcDbEntity
  8
Laag 1
 62
   250
370
     5
100
AcDbVertex
100
AcDb2dVertex
 10
160.7386376747287
 20
-119.5432835145264
 30
0.0
  0
VERTEX
  5
13F
330
12D
100
AcDbEntity
  8
Laag 1
 62
   250
370
     5
100
AcDbVertex
100
AcDb2dVertex
 10
163.7386268232843
 20
-119.5432835145264
 30
0.0
  0
VERTEX
  5
140
330
12D
100
AcDbEntity
  8
Laag 1
 62
   250
370
     5
100
AcDbVertex
100
AcDb2dVertex
 10
163.7386268232843
 20
-116.0432818199804
 30
0.0
  0
VERTEX
  5
141
330
12D
100
AcDbEntity
  8
Laag 1
 62
   250
370
     5
100
AcDbVertex
100
AcDb2dVertex
 10
166.7386375036866
 20
-116.0432818199804
 30
0.0
  0
VERTEX
  5
142
330
12D
100
AcDbEntity
  8
Laag 1
 62
   250
370
     5
100
AcDbVertex
100
AcDb2dVertex
 10
166.7386375036866
 20
-111.0432855511566
 30
0.0
  0
SEQEND
  5
143
330
12D
100
AcDbEntity
  8
Laag 1
 62
   250
370
     5
  0
POLYLINE
  5
144
330
1F
100
AcDbEntity
  8
Laag 1
 62
   250
370
     5
100
AcDb2dPolyline
 66
     1
 10
0.0
 20
0.0
 30
0.0
  0
VERTEX
  5
145
330
144
100
AcDbEntity
  8
Laag 1
 62
   250
370
     5
100
AcDbVertex
100
AcDb2dVertex
 10
168.1138203228214
 20
-126.3032622200576
 30
0.0
  0
VERTEX
  5
146
330
144
100
AcDbEntity
  8
Laag 1
 62
   250
370
     5
100
AcDbVertex
100
AcDb2dVertex
 10
165.1138096424191
 20
-126.3032622200576
 30
0.0
  0
VERTEX
  5
147
330
144
100
AcDbEntity
  8
Laag 1
 62
   250
370
     5
100
AcDbVertex
100
AcDb2dVertex
 10
165.1138096424191
 20
-122.8032605255116
 30
0.0
  0
VERTEX
  5
148
330
144
100
AcDbEntity
  8
Laag 1
 62
   250
370
     5
100
AcDbVertex
100
AcDb2dVertex
 10
162.1138204938635
 20
-122.8032605255116
 30
0.0
  0
VERTEX
  5
149
330
144
100
AcDbEntity
  8
Laag 1
 62
   250
370
     5
100
AcDbVertex
100
AcDb2dVertex
 10
162.1138204938635
 20
-126.3032622200576
 30
0.0
  0
VERTEX
  5
14A
330
144
100
AcDbEntity
  8
Laag 1
 62
   250
370
     5
100
AcDbVertex
100
AcDb2dVertex
 10
144.1138210069898
 20
-126.3032622200576
 30
0.0
  0
VERTEX
  5
14B
330
144
100
AcDbEntity
  8
Laag 1
 62
   250
370
     5
100
AcDbVertex
100
AcDb2dVertex
 10
144.1138210069898
 20
-122.8032605255116
 30
0.0
  0
VERTEX
  5
14C
330
144
100
AcDbEntity
  8
Laag 1
 62
   250
370
     5
100
AcDbVertex
100
AcDb2dVertex
 10
141.1138103265875
 20
-122.8032605255116
 30
0.0
  0
VERTEX
  5
14D
330
144
100
AcDbEntity
  8
Laag 1
 62
   250
370
     5
100
AcDbVertex
100
AcDb2dVertex
 10
141.1138103265875
 20
-126.3032622200576
 30
0.0
  0
VERTEX
  5
14E
330
144
100
AcDbEntity
  8
Laag 1
 62
   250
370
     5
100
AcDbVertex
100
AcDb2dVertex
 10
138.1138211780319
 20
-126.3032622200576
 30
0.0
  0
VERTEX
  5
14F
330
144
100
AcDbEntity
  8
Laag 1
 62
   250
370
     5
100
AcDbVertex
100
AcDb2dVertex
 10
138.1138211780319
 20
-131.3032584888814
 30
0.0
  0
VERTEX
  5
150
330
144
100
AcDbEntity
  8
Laag 1
 62
   250
370
     5
100
AcDbVertex
100
AcDb2dVertex
 10
141.1138103265875
 20
-131.3032584888814
 30
0.0
  0
VERTEX
  5
151
330
144
100
AcDbEntity
  8
Laag 1
 62
   250
370
     5
100
AcDbVertex
100
AcDb2dVertex
 10
141.1138103265875
 20
-134.8032601834274
 30
0.0
  0
VERTEX
  5
152
330
144
100
AcDbEntity
  8
Laag 1
 62
   250
370
     5
100
AcDbVertex
100
AcDb2dVertex
 10
144.1138210069898
 20
-134.8032601834274
 30
0.0
  0
VERTEX
  5
153
330
144
100
AcDbEntity
  8
Laag 1
 62
   250
370
     5
100
AcDbVertex
100
AcDb2dVertex
 10
144.1138210069898
 20
-131.3032584888814
 30
0.0
  0
VERTEX
  5
154
330
144
100
AcDbEntity
  8
Laag 1
 62
   250
370
     5
100
AcDbVertex
100
AcDb2dVertex
 10
162.1138204938635
 20
-131.3032584888814
 30
0.0
  0
VERTEX
  5
155
330
144
100
AcDbEntity
  8
Laag 1
 62
   250
370
     5
100
AcDbVertex
100
AcDb2dVertex
 10
162.1138204938635
 20
-134.8032601834274
 30
0.0
  0
VERTEX
  5
156
330
144
100
AcDbEntity
  8
Laag 1
 62
   250
370
     5
100
AcDbVertex
100
AcDb2dVertex
 10
165.1138096424191
 20
-134.8032601834274
 30
0.0
  0
VERTEX
  5
157
330
144
100
AcDbEntity
  8
Laag 1
 62
   250
370
     5
100
AcDbVertex
100
AcDb2dVertex
 10
165.1138096424191
 20
-131.3032584888814
 30
0.0
  0
VERTEX
  5
158
330
144
100
AcDbEntity
  8
Laag 1
 62
   250
370
     5
100
AcDbVertex
100
AcDb2dVertex
 10
168.1138203228214
 20
-131.3032584888814
 30
0.0
  0
VERTEX
  5
159
330
144
100
AcDbEntity
  8
Laag 1
 62
   250
370
     5
100
AcDbVertex
100
AcDb2dVertex
 10
168.1138203228214
 20
-126.3032622200576
 30
0.0
  0
SEQEND
  5
15A
330
144
100
AcDbEntity
  8
Laag 1
 62
   250
370
     5
  0
POLYLINE
  5
15B
330
1F
100
AcDbEntity
  8
Laag 1
 62
   250
370
     5
100
AcDb2dPolyline
 66
     1
 10
0.0
 20
0.0
 30
0.0
  0
VERTEX
  5
15C
330
15B
100
AcDbEntity
  8
Laag 1
 62
   250
370
     5
100
AcDbVertex
100
AcDb2dVertex
 10
54.97378079237063
 20
-148.2059493300647
 30
0.0
  0
VERTEX
  5
15D
330
15B
100
AcDbEntity
  8
Laag 1
 62
   250
370
     5
100
AcDbVertex
100
AcDb2dVertex
 10
54.97378079237063
 20
-144.7059476355187
 30
0.0
  0
VERTEX
  5
15E
330
15B
100
AcDbEntity
  8
Laag 1
 62
   250
370
     5
100
AcDbVertex
100
AcDb2dVertex
 10
51.97379164381507
 20
-144.7059476355187
 30
0.0
  0
VERTEX
  5
15F
330
15B
100
AcDbEntity
  8
Laag 1
 62
   250
370
     5
100
AcDbVertex
100
AcDb2dVertex
 10
51.97379164381507
 20
-148.2059493300647
 30
0.0
  0
VERTEX
  5
160
330
15B
100
AcDbEntity
  8
Laag 1
 62
   250
370
     5
100
AcDbVertex
100
AcDb2dVertex
 10
42.97378113445483
 20
-148.2059493300647
 30
0.0
  0
VERTEX
  5
161
330
15B
100
AcDbEntity
  8
Laag 1
 62
   250
370
     5
100
AcDbVertex
100
AcDb2dVertex
 10
17.98689115317985
 20
-148.2059493300647
 30
0.0
  0
VERTEX
  5
162
330
15B
100
AcDbEntity
  8
Laag 1
 62
   250
370
     5
100
AcDbVertex
100
AcDb2dVertex
 10
8.986902175666392
 20
-148.2059493300647
 30
0.0
  0
VERTEX
  5
163
330
15B
100
AcDbEntity
  8
Laag 1
 62
   250
370
     5
100
AcDbVertex
100
AcDb2dVertex
 10
8.986902175666392
 20
-144.7059476355187
 30
0.0
  0
VERTEX
  5
164
330
15B
100
AcDbEntity
  8
Laag 1
 62
   250
370
     5
100
AcDbVertex
100
AcDb2dVertex
 10
5.98689149526405
 20
-144.7059476355187
 30
0.0
  0
VERTEX
  5
165
330
15B
100
AcDbEntity
  8
Laag 1
 62
   250
370
     5
100
AcDbVertex
100
AcDb2dVertex
 10
5.98689149526405
 20
-148.2059493300647
 30
0.0
  0
VERTEX
  5
166
330
15B
100
AcDbEntity
  8
Laag 1
 62
   250
370
     5
100
AcDbVertex
100
AcDb2dVertex
 10
2.986902346708492
 20
-148.2059493300647
 30
0.0
  0
VERTEX
  5
167
330
15B
100
AcDbEntity
  8
Laag 1
 62
   250
370
     5
100
AcDbVertex
100
AcDb2dVertex
 10
2.986902346708492
 20
-153.2059455988885
 30
0.0
  0
VERTEX
  5
168
330
15B
100
AcDbEntity
  8
Laag 1
 62
   250
370
     5
100
AcDbVertex
100
AcDb2dVertex
 10
5.98689149526405
 20
-153.2059455988885
 30
0.0
  0
VERTEX
  5
169
330
15B
100
AcDbEntity
  8
Laag 1
 62
   250
370
     5
100
AcDbVertex
100
AcDb2dVertex
 10
5.98689149526405
 20
-156.7059472934345
 30
0.0
  0
VERTEX
  5
16A
330
15B
100
AcDbEntity
  8
Laag 1
 62
   250
370
     5
100
AcDbVertex
100
AcDb2dVertex
 10
8.986902175666392
 20
-156.7059472934345
 30
0.0
  0
VERTEX
  5
16B
330
15B
100
AcDbEntity
  8
Laag 1
 62
   250
370
     5
100
AcDbVertex
100
AcDb2dVertex
 10
8.986902175666392
 20
-153.2059455988885
 30
0.0
  0
VERTEX
  5
16C
330
15B
100
AcDbEntity
  8
Laag 1
 62
   250
370
     5
100
AcDbVertex
100
AcDb2dVertex
 10
17.98689115317985
 20
-153.2059455988885
 30
0.0
  0
VERTEX
  5
16D
330
15B
100
AcDbEntity
  8
Laag 1
 62
   250
370
     5
100
AcDbVertex
100
AcDb2dVertex
 10
42.97378113445483
 20
-153.2059455988885
 30
0.0
  0
VERTEX
  5
16E
330
15B
100
AcDbEntity
  8
Laag 1
 62
   250
370
     5
100
AcDbVertex
100
AcDb2dVertex
 10
51.97379164381507
 20
-153.2059455988885
 30
0.0
  0
VERTEX
  5
16F
330
15B
100
AcDbEntity
  8
Laag 1
 62
   250
370
     5
100
AcDbVertex
100
AcDb2dVertex
 10
51.97379164381507
 20
-156.7059472934345
 30
0.0
  0
VERTEX
  5
170
330
15B
100
AcDbEntity
  8
Laag 1
 62
   250
370
     5
100
AcDbVertex
100
AcDb2dVertex
 10
54.97378079237063
 20
-156.7059472934345
 30
0.0
  0
VERTEX
  5
171
330
15B
100
AcDbEntity
  8
Laag 1
 62
   250
370
     5
100
AcDbVertex
100
AcDb2dVertex
 10
54.97378079237063
 20
-153.2059455988885
 30
0.0
  0
VERTEX
  5
172
330
15B
100
AcDbEntity
  8
Laag 1
 62
   250
370
     5
100
AcDbVertex
100
AcDb2dVertex
 10
57.97379147277297
 20
-153.2059455988885
 30
0.0
  0
VERTEX
  5
173
330
15B
100
AcDbEntity
  8
Laag 1
 62
   250
370
     5
100
AcDbVertex
100
AcDb2dVertex
 10
57.97379147277297
 20
-148.2059493300647
 30
0.0
  0
VERTEX
  5
174
330
15B
100
AcDbEntity
  8
Laag 1
 62
   250
370
     5
100
AcDbVertex
100
AcDb2dVertex
 10
54.97378079237063
 20
-148.2059493300647
 30
0.0
  0
SEQEND
  5
175
330
15B
100
AcDbEntity
  8
Laag 1
 62
   250
370
     5
  0
POLYLINE
  5
176
330
1F
100
AcDbEntity
  8
Laag 1
 62
   250
370
     5
100
AcDb2dPolyline
 66
     1
 10
0.0
 20
0.0
 30
0.0
  0
VERTEX
  5
177
330
176
100
AcDbEntity
  8
Laag 1
 62
   250
370
     5
100
AcDbVertex
100
AcDb2dVertex
 10
59.47378019940911
 20
-159.4591847762408
 30
0.0
  0
VERTEX
  5
178
330
176
100
AcDbEntity
  8
Laag 1
 62
   250
370
     5
100
AcDbVertex
100
AcDb2dVertex
 10
59.47378019940911
 20
-155.9591830816948
 30
0.0
  0
VERTEX
  5
179
330
176
100
AcDbEntity
  8
Laag 1
 62
   250
370
     5
100
AcDbVertex
100
AcDb2dVertex
 10
56.47379105085356
 20
-155.9591830816948
 30
0.0
  0
VERTEX
  5
17A
330
176
100
AcDbEntity
  8
Laag 1
 62
   250
370
     5
100
AcDbVertex
100
AcDb2dVertex
 10
56.47379105085356
 20
-159.4591847762408
 30
0.0
  0
VERTEX
  5
17B
330
176
100
AcDbEntity
  8
Laag 1
 62
   250
370
     5
100
AcDbVertex
100
AcDb2dVertex
 10
47.47378054149331
 20
-159.4591847762408
 30
0.0
  0
VERTEX
  5
17C
330
176
100
AcDbEntity
  8
Laag 1
 62
   250
370
     5
100
AcDbVertex
100
AcDb2dVertex
 10
22.48689056021833
 20
-159.4591847762408
 30
0.0
  0
VERTEX
  5
17D
330
176
100
AcDbEntity
  8
Laag 1
 62
   250
370
     5
100
AcDbVertex
100
AcDb2dVertex
 10
13.48690158270487
 20
-159.4591847762408
 30
0.0
  0
VERTEX
  5
17E
330
176
100
AcDbEntity
  8
Laag 1
 62
   250
370
     5
100
AcDbVertex
100
AcDb2dVertex
 10
13.48690158270487
 20
-155.9591830816948
 30
0.0
  0
VERTEX
  5
17F
330
176
100
AcDbEntity
  8
Laag 1
 62
   250
370
     5
100
AcDbVertex
100
AcDb2dVertex
 10
10.48689090230253
 20
-155.9591830816948
 30
0.0
  0
VERTEX
  5
180
330
176
100
AcDbEntity
  8
Laag 1
 62
   250
370
     5
100
AcDbVertex
100
AcDb2dVertex
 10
10.48689090230253
 20
-159.4591847762408
 30
0.0
  0
VERTEX
  5
181
330
176
100
AcDbEntity
  8
Laag 1
 62
   250
370
     5
100
AcDbVertex
100
AcDb2dVertex
 10
7.486901753746975
 20
-159.4591847762408
 30
0.0
  0
VERTEX
  5
182
330
176
100
AcDbEntity
  8
Laag 1
 62
   250
370
     5
100
AcDbVertex
100
AcDb2dVertex
 10
7.486901753746975
 20
-164.4591810450646
 30
0.0
  0
VERTEX
  5
183
330
176
100
AcDbEntity
  8
Laag 1
 62
   250
370
     5
100
AcDbVertex
100
AcDb2dVertex
 10
10.48689090230253
 20
-164.4591810450646
 30
0.0
  0
VERTEX
  5
184
330
176
100
AcDbEntity
  8
Laag 1
 62
   250
370
     5
100
AcDbVertex
100
AcDb2dVertex
 10
10.48689090230253
 20
-167.9591827396106
 30
0.0
  0
VERTEX
  5
185
330
176
100
AcDbEntity
  8
Laag 1
 62
   250
370
     5
100
AcDbVertex
100
AcDb2dVertex
 10
13.48690158270487
 20
-167.9591827396106
 30
0.0
  0
VERTEX
  5
186
330
176
100
AcDbEntity
  8
Laag 1
 62
   250
370
     5
100
AcDbVertex
100
AcDb2dVertex
 10
13.48690158270487
 20
-164.4591810450646
 30
0.0
  0
VERTEX
  5
187
330
176
100
AcDbEntity
  8
Laag 1
 62
   250
370
     5
100
AcDbVertex
100
AcDb2dVertex
 10
22.48689056021833
 20
-164.4591810450646
 30
0.0
  0
VERTEX
  5
188
330
176
100
AcDbEntity
  8
Laag 1
 62
   250
370
     5
100
AcDbVertex
100
AcDb2dVertex
 10
47.47378054149331
 20
-164.4591810450646
 30
0.0
  0
VERTEX
  5
189
330
176
100
AcDbEntity
  8
Laag 1
 62
   250
370
     5
100
AcDbVertex
100
AcDb2dVertex
 10
56.47379105085356
 20
-164.4591810450646
 30
0.0
  0
VERTEX
  5
18A
330
176
100
AcDbEntity
  8
Laag 1
 62
   250
370
     5
100
AcDbVertex
100
AcDb2dVertex
 10
56.47379105085356
 20
-167.9591827396106
 30
0.0
  0
VERTEX
  5
18B
330
176
100
AcDbEntity
  8
Laag 1
 62
   250
370
     5
100
AcDbVertex
100
AcDb2dVertex
 10
59.47378019940911
 20
-167.9591827396106
 30
0.0
  0
VERTEX
  5
18C
330
176
100
AcDbEntity
  8
Laag 1
 62
   250
370
     5
100
AcDbVertex
100
AcDb2dVertex
 10
59.47378019940911
 20
-164.4591810450646
 30
0.0
  0
VERTEX
  5
18D
330
176
100
AcDbEntity
  8
Laag 1
 62
   250
370
     5
100
AcDbVertex
100
AcDb2dVertex
 10
62.47379087981145
 20
-164.4591810450646
 30
0.0
  0
VERTEX
  5
18E
330
176
100
AcDbEntity
  8
Laag 1
 62
   250
370
     5
100
AcDbVertex
100
AcDb2dVertex
 10
62.47379087981145
 20
-159.4591847762408
 30
0.0
  0
VERTEX
  5
18F
330
176
100
AcDbEntity
  8
Laag 1
 62
   250
370
     5
100
AcDbVertex
100
AcDb2dVertex
 10
59.47378019940911
 20
-159.4591847762408
 30
0.0
  0
SEQEND
  5
190
330
176
100
AcDbEntity
  8
Laag 1
 62
   250
370
     5
  0
POLYLINE
  5
191
330
1F
100
AcDbEntity
  8
Laag 1
 62
   250
370
     5
100
AcDb2dPolyline
 66
     1
 10
0.0
 20
0.0
 30
0.0
  0
VERTEX
  5
192
330
191
100
AcDbEntity
  8
Laag 1
 62
   250
370
     5
100
AcDbVertex
100
AcDb2dVertex
 10
54.97378079237063
 20
-171.1852594627013
 30
0.0
  0
VERTEX
  5
193
330
191
100
AcDbEntity
  8
Laag 1
 62
   250
370
     5
100
AcDbVertex
100
AcDb2dVertex
 10
54.97378079237063
 20
-167.6852577681553
 30
0.0
  0
VERTEX
  5
194
330
191
100
AcDbEntity
  8
Laag 1
 62
   250
370
     5
100
AcDbVertex
100
AcDb2dVertex
 10
51.97379164381507
 20
-167.6852577681553
 30
0.0
  0
VERTEX
  5
195
330
191
100
AcDbEntity
  8
Laag 1
 62
   250
370
     5
100
AcDbVertex
100
AcDb2dVertex
 10
51.97379164381507
 20
-171.1852594627013
 30
0.0
  0
VERTEX
  5
196
330
191
100
AcDbEntity
  8
Laag 1
 62
   250
370
     5
100
AcDbVertex
100
AcDb2dVertex
 10
42.97378113445483
 20
-171.1852594627013
 30
0.0
  0
VERTEX
  5
197
330
191
100
AcDbEntity
  8
Laag 1
 62
   250
370
     5
100
AcDbVertex
100
AcDb2dVertex
 10
17.98689115317985
 20
-171.1852594627013
 30
0.0
  0
VERTEX
  5
198
330
191
100
AcDbEntity
  8
Laag 1
 62
   250
370
     5
100
AcDbVertex
100
AcDb2dVertex
 10
8.986902175666392
 20
-171.1852594627013
 30
0.0
  0
VERTEX
  5
199
330
191
100
AcDbEntity
  8
Laag 1
 62
   250
370
     5
100
AcDbVertex
100
AcDb2dVertex
 10
8.986902175666392
 20
-167.6852577681553
 30
0.0
  0
VERTEX
  5
19A
330
191
100
AcDbEntity
  8
Laag 1
 62
   250
370
     5
100
AcDbVertex
100
AcDb2dVertex
 10
5.98689149526405
 20
-167.6852577681553
 30
0.0
  0
VERTEX
  5
19B
330
191
100
AcDbEntity
  8
Laag 1
 62
   250
370
     5
100
AcDbVertex
100
AcDb2dVertex
 10
5.98689149526405
 20
-171.1852594627013
 30
0.0
  0
VERTEX
  5
19C
330
191
100
AcDbEntity
  8
Laag 1
 62
   250
370
     5
100
AcDbVertex
100
AcDb2dVertex
 10
2.986902346708492
 20
-171.1852594627013
 30
0.0
  0
VERTEX
  5
19D
330
191
100
AcDbEntity
  8
Laag 1
 62
   250
370
     5
100
AcDbVertex
100
AcDb2dVertex
 10
2.986902346708492
 20
-176.1852557315251
 30
0.0
  0
VERTEX
  5
19E
330
191
100
AcDbEntity
  8
Laag 1
 62
   250
370
     5
100
AcDbVertex
100
AcDb2dVertex
 10
5.98689149526405
 20
-176.1852557315251
 30
0.0
  0
VERTEX
  5
19F
330
191
100
AcDbEntity
  8
Laag 1
 62
   250
370
     5
100
AcDbVertex
100
AcDb2dVertex
 10
5.98689149526405
 20
-179.6852574260711
 30
0.0
  0
VERTEX
  5
1A0
330
191
100
AcDbEntity
  8
Laag 1
 62
   250
370
     5
100
AcDbVertex
100
AcDb2dVertex
 10
8.986902175666392
 20
-179.6852574260711
 30
0.0
  0
VERTEX
  5
1A1
330
191
100
AcDbEntity
  8
Laag 1
 62
   250
370
     5
100
AcDbVertex
100
AcDb2dVertex
 10
8.986902175666392
 20
-176.1852557315251
 30
0.0
  0
VERTEX
  5
1A2
330
191
100
AcDbEntity
  8
Laag 1
 62
   250
370
     5
100
AcDbVertex
100
AcDb2dVertex
 10
17.98689115317985
 20
-176.1852557315251
 30
0.0
  0
VERTEX
  5
1A3
330
191
100
AcDbEntity
  8
Laag 1
 62
   250
370
     5
100
AcDbVertex
100
AcDb2dVertex
 10
42.97378113445483
 20
-176.1852557315251
 30
0.0
  0
VERTEX
  5
1A4
330
191
100
AcDbEntity
  8
Laag 1
 62
   250
370
     5
100
AcDbVertex
100
AcDb2dVertex
 10
51.97379164381507
 20
-176.1852557315251
 30
0.0
  0
VERTEX
  5
1A5
330
191
100
AcDbEntity
  8
Laag 1
 62
   250
370
     5
100
AcDbVertex
100
AcDb2dVertex
 10
51.97379164381507
 20
-179.6852574260711
 30
0.0
  0
VERTEX
  5
1A6
330
191
100
AcDbEntity
  8
Laag 1
 62
   250
370
     5
100
AcDbVertex
100
AcDb2dVertex
 10
54.97378079237063
 20
-179.6852574260711
 30
0.0
  0
VERTEX
  5
1A7
330
191
100
AcDbEntity
  8
Laag 1
 62
   250
370
     5
100
AcDbVertex
100
AcDb2dVertex
 10
54.97378079237063
 20
-176.1852557315251
 30
0.0
  0
VERTEX
  5
1A8
330
191
100
AcDbEntity
  8
Laag 1
 62
   250
370
     5
100
AcDbVertex
100
AcDb2dVertex
 10
57.97379147277297
 20
-176.1852557315251
 30
0.0
  0
VERTEX
  5
1A9
330
191
100
AcDbEntity
  8
Laag 1
 62
   250
370
     5
100
AcDbVertex
100
AcDb2dVertex
 10
57.97379147277297
 20
-171.1852594627013
 30
0.0
  0
VERTEX
  5
1AA
330
191
100
AcDbEntity
  8
Laag 1
 62
   250
370
     5
100
AcDbVertex
100
AcDb2dVertex
 10
54.97378079237063
 20
-171.1852594627013
 30
0.0
  0
SEQEND
  5
1AB
330
191
100
AcDbEntity
  8
Laag 1
 62
   250
370
     5
  0
POLYLINE
  5
1AC
330
1F
100
AcDbEntity
  8
Laag 1
 62
   250
370
     5
100
AcDb2dPolyline
 66
     1
 10
0.0
 20
0.0
 30
0.0
  0
VERTEX
  5
1AD
330
1AC
100
AcDbEntity
  8
Laag 1
 62
   250
370
     5
100
AcDbVertex
100
AcDb2dVertex
 10
59.47378019940911
 20
-136.864275495827
 30
0.0
  0
VERTEX
  5
1AE
330
1AC
100
AcDbEntity
  8
Laag 1
 62
   250
370
     5
100
AcDbVertex
100
AcDb2dVertex
 10
59.47378019940911
 20
-133.364273801281
 30
0.0
  0
VERTEX
  5
1AF
330
1AC
100
AcDbEntity
  8
Laag 1
 62
   250
370
     5
100
AcDbVertex
100
AcDb2dVertex
 10
56.47379105085356
 20
-133.364273801281
 30
0.0
  0
VERTEX
  5
1B0
330
1AC
100
AcDbEntity
  8
Laag 1
 62
   250
370
     5
100
AcDbVertex
100
AcDb2dVertex
 10
56.47379105085356
 20
-136.864275495827
 30
0.0
  0
VERTEX
  5
1B1
330
1AC
100
AcDbEntity
  8
Laag 1
 62
   250
370
     5
100
AcDbVertex
100
AcDb2dVertex
 10
47.47378054149331
 20
-136.864275495827
 30
0.0
  0
VERTEX
  5
1B2
330
1AC
100
AcDbEntity
  8
Laag 1
 62
   250
370
     5
100
AcDbVertex
100
AcDb2dVertex
 10
22.48689056021833
 20
-136.864275495827
 30
0.0
  0
VERTEX
  5
1B3
330
1AC
100
AcDbEntity
  8
Laag 1
 62
   250
370
     5
100
AcDbVertex
100
AcDb2dVertex
 10
13.48690158270487
 20
-136.864275495827
 30
0.0
  0
VERTEX
  5
1B4
330
1AC
100
AcDbEntity
  8
Laag 1
 62
   250
370
     5
100
AcDbVertex
100
AcDb2dVertex
 10
13.48690158270487
 20
-133.364273801281
 30
0.0
  0
VERTEX
  5
1B5
330
1AC
100
AcDbEntity
  8
Laag 1
 62
   250
370
     5
100
AcDbVertex
100
AcDb2dVertex
 10
10.48689090230253
 20
-133.364273801281
 30
0.0
  0
VERTEX
  5
1B6
330
1AC
100
AcDbEntity
  8
Laag 1
 62
   250
370
     5
100
AcDbVertex
100
AcDb2dVertex
 10
10.48689090230253
 20
-136.864275495827
 30
0.0
  0
VERTEX
  5
1B7
330
1AC
100
AcDbEntity
  8
Laag 1
 62
   250
370
     5
100
AcDbVertex
100
AcDb2dVertex
 10
7.486901753746975
 20
-136.864275495827
 30
0.0
  0
VERTEX
  5
1B8
330
1AC
100
AcDbEntity
  8
Laag 1
 62
   250
370
     5
100
AcDbVertex
100
AcDb2dVertex
 10
7.486901753746975
 20
-141.8642717646508
 30
0.0
  0
VERTEX
  5
1B9
330
1AC
100
AcDbEntity
  8
Laag 1
 62
   250
370
     5
100
AcDbVertex
100
AcDb2dVertex
 10
10.48689090230253
 20
-141.8642717646508
 30
0.0
  0
VERTEX
  5
1BA
330
1AC
100
AcDbEntity
  8
Laag 1
 62
   250
370
     5
100
AcDbVertex
100
AcDb2dVertex
 10
10.48689090230253
 20
-145.3642734591968
 30
0.0
  0
VERTEX
  5
1BB
330
1AC
100
AcDbEntity
  8
Laag 1
 62
   250
370
     5
100
AcDbVertex
100
AcDb2dVertex
 10
13.48690158270487
 20
-145.3642734591968
 30
0.0
  0
VERTEX
  5
1BC
330
1AC
100
AcDbEntity
  8
Laag 1
 62
   250
370
     5
100
AcDbVertex
100
AcDb2dVertex
 10
13.48690158270487
 20
-141.8642717646508
 30
0.0
  0
VERTEX
  5
1BD
330
1AC
100
AcDbEntity
  8
Laag 1
 62
   250
370
     5
100
AcDbVertex
100
AcDb2dVertex
 10
22.48689056021833
 20
-141.8642717646508
 30
0.0
  0
VERTEX
  5
1BE
330
1AC
100
AcDbEntity
  8
Laag 1
 62
   250
370
     5
100
AcDbVertex
100
AcDb2dVertex
 10
47.47378054149331
 20
-141.8642717646508
 30
0.0
  0
VERTEX
  5
1BF
330
1AC
100
AcDbEntity
  8
Laag 1
 62
   250
370
     5
100
AcDbVertex
100
AcDb2dVertex
 10
56.47379105085356
 20
-141.8642717646508
 30
0.0
  0
VERTEX
  5
1C0
330
1AC
100
AcDbEntity
  8
Laag 1
 62
   250
370
     5
100
AcDbVertex
100
AcDb2dVertex
 10
56.47379105085356
 20
-145.3642734591968
 30
0.0
  0
VERTEX
  5
1C1
330
1AC
100
AcDbEntity
  8
Laag 1
 62
   250
370
     5
100
AcDbVertex
100
AcDb2dVertex
 10
59.47378019940911
 20
-145.3642734591968
 30
0.0
  0
VERTEX
  5
1C2
330
1AC
100
AcDbEntity
  8
Laag 1
 62
   250
370
     5
100
AcDbVertex
100
AcDb2dVertex
 10
59.47378019940911
 20
-141.8642717646508
 30
0.0
  0
VERTEX
  5
1C3
330
1AC
100
AcDbEntity
  8
Laag 1
 62
   250
370
     5
100
AcDbVertex
100
AcDb2dVertex
 10
62.47379087981145
 20
-141.8642717646508
 30
0.0
  0
VERTEX
  5
1C4
330
1AC
100
AcDbEntity
  8
Laag 1
 62
   250
370
     5
100
AcDbVertex
100
AcDb2dVertex
 10
62.47379087981145
 20
-136.864275495827
 30
0.0
  0
VERTEX
  5
1C5
330
1AC
100
AcDbEntity
  8
Laag 1
 62
   250
370
     5
100
AcDbVertex
100
AcDb2dVertex
 10
59.47378019940911
 20
-136.864275495827
 30
0.0
  0
SEQEND
  5
1C6
330
1AC
100
AcDbEntity
  8
Laag 1
 62
   250
370
     5
  0
POLYLINE
  5
1C7
330
1F
100
AcDbEntity
  8
Laag 1
 62
   250
370
     5
100
AcDb2dPolyline
 66
     1
 10
0.0
 20
0.0
 30
0.0
  0
VERTEX
  5
1C8
330
1C7
100
AcDbEntity
  8
Laag 1
 62
   250
370
     5
100
AcDbVertex
100
AcDb2dVertex
 10
129.2053468147799
 20
-137.5837686868999
 30
0.0
  0
VERTEX
  5
1C9
330
1C7
100
AcDbEntity
  8
Laag 1
 62
   250
370
     5
100
AcDbVertex
100
AcDb2dVertex
 10
98.37744816119066
 20
-137.5837686868999
 30
0.0
  0
VERTEX
  5
1CA
330
1C7
100
AcDbEntity
  8
Laag 1
 62
   250
370
     5
100
AcDbVertex
100
AcDb2dVertex
 10
98.37744816119066
 20
-134.0837669923539
 30
0.0
  0
VERTEX
  5
1CB
330
1C7
100
AcDbEntity
  8
Laag 1
 62
   250
370
     5
100
AcDbVertex
100
AcDb2dVertex
 10
95.3774590126351
 20
-134.0837669923539
 30
0.0
  0
VERTEX
  5
1CC
330
1C7
100
AcDbEntity
  8
Laag 1
 62
   250
370
     5
100
AcDbVertex
100
AcDb2dVertex
 10
95.3774590126351
 20
-137.5837686868999
 30
0.0
  0
VERTEX
  5
1CD
330
1C7
100
AcDbEntity
  8
Laag 1
 62
   250
370
     5
100
AcDbVertex
100
AcDb2dVertex
 10
95.3774590126351
 20
-142.5837864875705
 30
0.0
  0
VERTEX
  5
1CE
330
1C7
100
AcDbEntity
  8
Laag 1
 62
   250
370
     5
100
AcDbVertex
100
AcDb2dVertex
 10
95.3774590126351
 20
-146.0837666502697
 30
0.0
  0
VERTEX
  5
1CF
330
1C7
100
AcDbEntity
  8
Laag 1
 62
   250
370
     5
100
AcDbVertex
100
AcDb2dVertex
 10
98.37744816119066
 20
-146.0837666502697
 30
0.0
  0
VERTEX
  5
1D0
330
1C7
100
AcDbEntity
  8
Laag 1
 62
   250
370
     5
100
AcDbVertex
100
AcDb2dVertex
 10
98.37744816119066
 20
-142.5837864875705
 30
0.0
  0
VERTEX
  5
1D1
330
1C7
100
AcDbEntity
  8
Laag 1
 62
   250
370
     5
100
AcDbVertex
100
AcDb2dVertex
 10
129.2053468147799
 20
-142.5837864875705
 30
0.0
  0
VERTEX
  5
1D2
330
1C7
100
AcDbEntity
  8
Laag 1
 62
   250
370
     5
100
AcDbVertex
100
AcDb2dVertex
 10
129.2053468147799
 20
-137.5837686868999
 30
0.0
  0
SEQEND
  5
1D3
330
1C7
100
AcDbEntity
  8
Laag 1
 62
   250
370
     5
  0
POLYLINE
  5
1D4
330
1F
100
AcDbEntity
  8
Laag 1
 62
   250
370
     5
100
AcDb2dPolyline
 66
     1
 10
0.0
 20
0.0
 30
0.0
  0
VERTEX
  5
1D5
330
1D4
100
AcDbEntity
  8
Laag 1
 62
   250
370
     5
100
AcDbVertex
100
AcDb2dVertex
 10
166.8830409286411
 20
-137.9958978335021
 30
0.0
  0
VERTEX
  5
1D6
330
1D4
100
AcDbEntity
  8
Laag 1
 62
   250
370
     5
100
AcDbVertex
100
AcDb2dVertex
 10
136.0551422750525
 20
-137.9958978335021
 30
0.0
  0
VERTEX
  5
1D7
330
1D4
100
AcDbEntity
  8
Laag 1
 62
   250
370
     5
100
AcDbVertex
100
AcDb2dVertex
 10
136.0551422750525
 20
-134.4958961389561
 30
0.0
  0
VERTEX
  5
1D8
330
1D4
100
AcDbEntity
  8
Laag 1
 62
   250
370
     5
100
AcDbVertex
100
AcDb2dVertex
 10
133.0551531264969
 20
-134.4958961389561
 30
0.0
  0
VERTEX
  5
1D9
330
1D4
100
AcDbEntity
  8
Laag 1
 62
   250
370
     5
100
AcDbVertex
100
AcDb2dVertex
 10
133.0551531264969
 20
-137.9958978335021
 30
0.0
  0
VERTEX
  5
1DA
330
1D4
100
AcDbEntity
  8
Laag 1
 62
   250
370
     5
100
AcDbVertex
100
AcDb2dVertex
 10
133.0551531264969
 20
-142.9959156341726
 30
0.0
  0
VERTEX
  5
1DB
330
1D4
100
AcDbEntity
  8
Laag 1
 62
   250
370
     5
100
AcDbVertex
100
AcDb2dVertex
 10
133.0551531264969
 20
-146.4958957968718
 30
0.0
  0
VERTEX
  5
1DC
330
1D4
100
AcDbEntity
  8
Laag 1
 62
   250
370
     5
100
AcDbVertex
100
AcDb2dVertex
 10
136.0551422750525
 20
-146.4958957968718
 30
0.0
  0
VERTEX
  5
1DD
330
1D4
100
AcDbEntity
  8
Laag 1
 62
   250
370
     5
100
AcDbVertex
100
AcDb2dVertex
 10
136.0551422750525
 20
-142.9959156341726
 30
0.0
  0
VERTEX
  5
1DE
330
1D4
100
AcDbEntity
  8
Laag 1
 62
   250
370
     5
100
AcDbVertex
100
AcDb2dVertex
 10
166.8830409286411
 20
-142.9959156341726
 30
0.0
  0
VERTEX
  5
1DF
330
1D4
100
AcDbEntity
  8
Laag 1
 62
   250
370
     5
100
AcDbVertex
100
AcDb2dVertex
 10
166.8830409286411
 20
-137.9958978335021
 30
0.0
  0
SEQEND
  5
1E0
330
1D4
100
AcDbEntity
  8
Laag 1
 62
   250
370
     5
  0
POLYLINE
  5
1E1
330
1F
100
AcDbEntity
  8
Laag 1
 62
   250
370
     5
100
AcDb2dPolyline
 66
     1
 10
0.0
 20
0.0
 30
0.0
  0
VERTEX
  5
1E2
330
1E1
100
AcDbEntity
  8
Laag 1
 62
   250
370
     5
100
AcDbVertex
100
AcDb2dVertex
 10
135.9183184507536
 20
-148.9359847592458
 30
0.0
  0
VERTEX
  5
1E3
330
1E1
100
AcDbEntity
  8
Laag 1
 62
   250
370
     5
100
AcDbVertex
100
AcDb2dVertex
 10
105.090419797165
 20
-148.9359847592458
 30
0.0
  0
VERTEX
  5
1E4
330
1E1
100
AcDbEntity
  8
Laag 1
 62
   250
370
     5
100
AcDbVertex
100
AcDb2dVertex
 10
105.090419797165
 20
-145.4359830646998
 30
0.0
  0
VERTEX
  5
1E5
330
1E1
100
AcDbEntity
  8
Laag 1
 62
   250
370
     5
100
AcDbVertex
100
AcDb2dVertex
 10
102.0904306486095
 20
-145.4359830646998
 30
0.0
  0
VERTEX
  5
1E6
330
1E1
100
AcDbEntity
  8
Laag 1
 62
   250
370
     5
100
AcDbVertex
100
AcDb2dVertex
 10
102.0904306486095
 20
-148.9359847592458
 30
0.0
  0
VERTEX
  5
1E7
330
1E1
100
AcDbEntity
  8
Laag 1
 62
   250
370
     5
100
AcDbVertex
100
AcDb2dVertex
 10
102.0904306486095
 20
-153.9360025599163
 30
0.0
  0
VERTEX
  5
1E8
330
1E1
100
AcDbEntity
  8
Laag 1
 62
   250
370
     5
100
AcDbVertex
100
AcDb2dVertex
 10
102.0904306486095
 20
-157.4359827226156
 30
0.0
  0
VERTEX
  5
1E9
330
1E1
100
AcDbEntity
  8
Laag 1
 62
   250
370
     5
100
AcDbVertex
100
AcDb2dVertex
 10
105.090419797165
 20
-157.4359827226156
 30
0.0
  0
VERTEX
  5
1EA
330
1E1
100
AcDbEntity
  8
Laag 1
 62
   250
370
     5
100
AcDbVertex
100
AcDb2dVertex
 10
105.090419797165
 20
-153.9360025599163
 30
0.0
  0
VERTEX
  5
1EB
330
1E1
100
AcDbEntity
  8
Laag 1
 62
   250
370
     5
100
AcDbVertex
100
AcDb2dVertex
 10
135.9183184507536
 20
-153.9360025599163
 30
0.0
  0
VERTEX
  5
1EC
330
1E1
100
AcDbEntity
  8
Laag 1
 62
   250
370
     5
100
AcDbVertex
100
AcDb2dVertex
 10
135.9183184507536
 20
-148.9359847592458
 30
0.0
  0
SEQEND
  5
1ED
330
1E1
100
AcDbEntity
  8
Laag 1
 62
   250
370
     5
  0
POLYLINE
  5
1EE
330
1F
100
AcDbEntity
  8
Laag 1
 62
   250
370
     5
100
AcDb2dPolyline
 66
     1
 10
0.0
 20
0.0
 30
0.0
  0
VERTEX
  5
1EF
330
1EE
100
AcDbEntity
  8
Laag 1
 62
   250
370
     5
100
AcDbVertex
100
AcDb2dVertex
 10
174.0957200454972
 20
-148.2059493300647
 30
0.0
  0
VERTEX
  5
1F0
330
1EE
100
AcDbEntity
  8
Laag 1
 62
   250
370
     5
100
AcDbVertex
100
AcDb2dVertex
 10
143.2678213919086
 20
-148.2059493300647
 30
0.0
  0
VERTEX
  5
1F1
330
1EE
100
AcDbEntity
  8
Laag 1
 62
   250
370
     5
100
AcDbVertex
100
AcDb2dVertex
 10
143.2678213919086
 20
-144.7059476355187
 30
0.0
  0
VERTEX
  5
1F2
330
1EE
100
AcDbEntity
  8
Laag 1
 62
   250
370
     5
100
AcDbVertex
100
AcDb2dVertex
 10
140.267832243353
 20
-144.7059476355187
 30
0.0
  0
VERTEX
  5
1F3
330
1EE
100
AcDbEntity
  8
Laag 1
 62
   250
370
     5
100
AcDbVertex
100
AcDb2dVertex
 10
140.267832243353
 20
-148.2059493300647
 30
0.0
  0
VERTEX
  5
1F4
330
1EE
100
AcDbEntity
  8
Laag 1
 62
   250
370
     5
100
AcDbVertex
100
AcDb2dVertex
 10
140.267832243353
 20
-153.2059671307353
 30
0.0
  0
VERTEX
  5
1F5
330
1EE
100
AcDbEntity
  8
Laag 1
 62
   250
370
     5
100
AcDbVertex
100
AcDb2dVertex
 10
140.267832243353
 20
-156.7059472934345
 30
0.0
  0
VERTEX
  5
1F6
330
1EE
100
AcDbEntity
  8
Laag 1
 62
   250
370
     5
100
AcDbVertex
100
AcDb2dVertex
 10
143.2678213919086
 20
-156.7059472934345
 30
0.0
  0
VERTEX
  5
1F7
330
1EE
100
AcDbEntity
  8
Laag 1
 62
   250
370
     5
100
AcDbVertex
100
AcDb2dVertex
 10
143.2678213919086
 20
-153.2059671307353
 30
0.0
  0
VERTEX
  5
1F8
330
1EE
100
AcDbEntity
  8
Laag 1
 62
   250
370
     5
100
AcDbVertex
100
AcDb2dVertex
 10
174.0957200454972
 20
-153.2059671307353
 30
0.0
  0
VERTEX
  5
1F9
330
1EE
100
AcDbEntity
  8
Laag 1
 62
   250
370
     5
100
AcDbVertex
100
AcDb2dVertex
 10
174.0957200454972
 20
-148.2059493300647
 30
0.0
  0
SEQEND
  5
1FA
330
1EE
100
AcDbEntity
  8
Laag 1
 62
   250
370
     5
  0
ENDSEC
  0
SECTION
  2
OBJECTS
  0
DICTIONARY
  5
C
330
0
100
AcDbDictionary
281
     1
  3
ACAD_GROUP
350
D
  3
ACAD_LAYOUT
350
1A
  3
ACAD_MATERIAL
350
3B
  3
ACAD_MLEADERSTYLE
350
21C
  3
ACAD_MLINESTYLE
350
17
  3
ACAD_PLOTSETTINGS
350
19
  3
ACAD_PLOTSTYLENAME
350
E
  3
ACAD_TABLESTYLE
350
21B
  3
ACAD_VISUALSTYLE
350
2A
  0
SUN
  5
3F
330
29
100
AcDbSun
 90
        1
290
     0
 63
     7
421
 16777215
 40
1.0
291
     1
 91
  2455826
 92
 54000000
292
     0
 70
     2
 71
   256
280
     1
  0
DICTIONARY
  5
D
102
{ACAD_REACTORS
330
C
102
}
330
C
100
AcDbDictionary
281
     1
  0
DICTIONARY
  5
1A
102
{ACAD_REACTORS
330
C
102
}
330
C
100
AcDbDictionary
281
     1
  3
Layout1
350
1E
  3
Layout2
350
26
  3
Model
350
22
  0
DICTIONARY
  5
3B
102
{ACAD_REACTORS
330
C
102
}
330
C
100
AcDbDictionary
281
     1
  3
ByBlock
350
3D
  3
ByLayer
350
3C
  3
Global
350
3E
  0
DICTIONARY
  5
21C
102
{ACAD_REACTORS
330
C
102
}
330
C
100
AcDbDictionary
281
     1
  0
DICTIONARY
  5
17
102
{ACAD_REACTORS
330
C
102
}
330
C
100
AcDbDictionary
281
     1
  3
Standard
350
18
  0
DICTIONARY
  5
19
102
{ACAD_REACTORS
330
C
102
}
330
C
100
AcDbDictionary
281
     1
  0
ACDBDICTIONARYWDFLT
  5
E
102
{ACAD_REACTORS
330
C
102
}
330
C
100
AcDbDictionary
281
     1
  3
Normal
350
F
100
AcDbDictionaryWithDefault
340
F
  0
DICTIONARY
  5
21B
102
{ACAD_REACTORS
330
C
102
}
330
C
100
AcDbDictionary
281
     1
  0
DICTIONARY
  5
2A
102
{ACAD_REACTORS
330
C
102
}
330
C
100
AcDbDictionary
281
     1
  3
2dWireframe
350
2F
  3
3D Hidden
350
31
  3
3dWireframe
350
30
  3
Basic
350
32
  3
Brighten
350
36
  3
ColorChange
350
3A
  3
Conceptual
350
34
  3
Dim
350
35
  3
Facepattern
350
39
  3
Flat
350
2B
  3
FlatWithEdges
350
2C
  3
Gouraud
350
2D
  3
GouraudWithEdges
350
2E
  3
Linepattern
350
38
  3
Realistic
350
33
  3
Thicken
350
37
  0
LAYOUT
  5
1E
102
{ACAD_REACTORS
330
1A
102
}
330
1A
100
AcDbPlotSettings
  1

  2
none_device
  4

  6

 40
0.0
 41
0.0
 42
0.0
 43
0.0
 44
0.0
 45
0.0
 46
0.0
 47
0.0
 48
0.0
 49
0.0
140
0.0
141
0.0
142
1.0
143
1.0
 70
   688
 72
     0
 73
     0
 74
     5
  7

 75
    16
 76
     0
 77
     2
 78
   300
147
1.0
148
0.0
149
0.0
100
AcDbLayout
  1
Layout1
 70
     1
 71
     1
 10
0.0
 20
0.0
 11
12.0
 21
9.0
 12
0.0
 22
0.0
 32
0.0
 14
1.000000000000000E+20
 24
1.000000000000000E+20
 34
1.000000000000000E+20
 15
-1.000000000000000E+20
 25
-1.000000000000000E+20
 35
-1.000000000000000E+20
146
0.0
 13
0.0
 23
0.0
 33
0.0
 16
1.0
 26
0.0
 36
0.0
 17
0.0
 27
1.0
 37
0.0
 76
     0
330
1B
  0
LAYOUT
  5
26
102
{ACAD_REACTORS
330
1A
102
}
330
1A
100
AcDbPlotSettings
  1

  2
none_device
  4

  6

 40
0.0
 41
0.0
 42
0.0
 43
0.0
 44
0.0
 45
0.0
 46
0.0
 47
0.0
 48
0.0
 49
0.0
140
0.0
141
0.0
142
1.0
143
1.0
 70
   688
 72
     0
 73
     0
 74
     5
  7

 75
    16
 76
     0
 77
     2
 78
   300
147
1.0
148
0.0
149
0.0
100
AcDbLayout
  1
Layout2
 70
     1
 71
     2
 10
0.0
 20
0.0
 11
0.0
 21
0.0
 12
0.0
 22
0.0
 32
0.0
 14
0.0
 24
0.0
 34
0.0
 15
0.0
 25
0.0
 35
0.0
146
0.0
 13
0.0
 23
0.0
 33
0.0
 16
1.0
 26
0.0
 36
0.0
 17
0.0
 27
1.0
 37
0.0
 76
     0
330
23
  0
LAYOUT
  5
22
102
{ACAD_REACTORS
330
1A
102
}
330
1A
100
AcDbPlotSettings
  1

  2
none_device
  4

  6

 40
0.0
 41
0.0
 42
0.0
 43
0.0
 44
0.0
 45
0.0
 46
0.0
 47
0.0
 48
0.0
 49
0.0
140
0.0
141
0.0
142
1.0
143
1.0
 70
  1712
 72
     0
 73
     0
 74
     0
  7

 75
     0
 76
     0
 77
     2
 78
   300
147
1.0
148
0.0
149
0.0
100
AcDbLayout
  1
Model
 70
     1
 71
     0
 10
0.0
 20
0.0
 11
12.0
 21
9.0
 12
0.0
 22
0.0
 32
0.0
 14
1.000000000000000E+20
 24
1.000000000000000E+20
 34
1.000000000000000E+20
 15
-1.000000000000000E+20
 25
-1.000000000000000E+20
 35
-1.000000000000000E+20
146
0.0
 13
0.0
 23
0.0
 33
0.0
 16
1.0
 26
0.0
 36
0.0
 17
0.0
 27
1.0
 37
0.0
 76
     0
330
1F
331
29
  0
MATERIAL
  5
3D
102
{ACAD_REACTORS
330
3B
102
}
330
3B
100
AcDbMaterial
  1
ByBlock
 72
     1
 94
      127
  0
MATERIAL
  5
3C
102
{ACAD_REACTORS
330
3B
102
}
330
3B
100
AcDbMaterial
  1
ByLayer
 72
     1
 94
      127
  0
MATERIAL
  5
3E
102
{ACAD_REACTORS
330
3B
102
}
330
3B
100
AcDbMaterial
  1
Global
 72
     1
 94
      127
  0
MLINESTYLE
  5
18
102
{ACAD_REACTORS
330
17
102
}
330
17
100
AcDbMlineStyle
  2
Standard
 70
     0
  3

 62
   256
 51
90.0
 52
90.0
 71
     2
 49
0.5
 62
   256
  6
BYLAYER
 49
-0.5
 62
   256
  6
BYLAYER
  0
ACDBPLACEHOLDER
  5
F
102
{ACAD_REACTORS
330
E
102
}
330
E
  0
VISUALSTYLE
  5
2F
102
{ACAD_REACTORS
330
2A
102
}
102
{ACAD_XDICTIONARY
360
203
102
}
330
2A
100
AcDbVisualStyle
  2
2dWireframe
 70
     4
 71
     0
 72
     2
 73
     0
 90
        0
 40
-0.6
 41
-30.0
 62
     5
 63
     7
421
 16777215
 74
     1
 91
        4
 64
     7
 65
   257
 75
     1
175
     1
 42
1.0
 92
        0
 66
   257
 43
1.0
 76
     1
 77
     6
 78
     2
 67
     7
 79
     5
170
     0
171
     0
290
     0
174
     0
 93
        1
 44
0.0
173
     0
291
     0
 45
0.0
  0
VISUALSTYLE
  5
31
102
{ACAD_REACTORS
330
2A
102
}
102
{ACAD_XDICTIONARY
360
207
102
}
330
2A
100
AcDbVisualStyle
  2
3D Hidden
 70
     6
 71
     1
 72
     2
 73
     2
 90
        0
 40
-0.6
 41
-30.0
 62
     5
 63
     7
421
 16777215
 74
     2
 91
        2
 64
     7
 65
   257
 75
     2
175
     1
 42
40.0
 92
        0
 66
   257
 43
1.0
 76
     1
 77
     6
 78
     2
 67
     7
 79
     3
170
     0
171
     0
290
     0
174
     0
 93
        1
 44
0.0
173
     0
291
     0
 45
0.0
  0
VISUALSTYLE
  5
30
102
{ACAD_REACTORS
330
2A
102
}
102
{ACAD_XDICTIONARY
360
205
102
}
330
2A
100
AcDbVisualStyle
  2
3dWireframe
 70
     5
 71
     0
 72
     2
 73
     0
 90
        0
 40
-0.6
 41
-30.0
 62
     5
 63
     7
421
 16777215
 74
     1
 91
        4
 64
     7
 65
   257
 75
     1
175
     1
 42
1.0
 92
        0
 66
   257
 43
1.0
 76
     1
 77
     6
 78
     2
 67
     7
 79
     5
170
     0
171
     0
290
     0
174
     0
 93
        1
 44
0.0
173
     0
291
     0
 45
0.0
  0
VISUALSTYLE
  5
32
102
{ACAD_REACTORS
330
2A
102
}
102
{ACAD_XDICTIONARY
360
209
102
}
330
2A
100
AcDbVisualStyle
  2
Basic
 70
     7
 71
     1
 72
     0
 73
     1
 90
        0
 40
-0.6
 41
-30.0
 62
     5
 63
     7
421
 16777215
 74
     0
 91
        4
 64
     7
 65
   257
 75
     1
175
     1
 42
1.0
 92
        8
 66
     7
 43
1.0
 76
     1
 77
     6
 78
     2
 67
     7
 79
     5
170
     0
171
     0
290
     0
174
     0
 93
        1
 44
0.0
173
     0
291
     1
 45
0.0
  0
VISUALSTYLE
  5
36
102
{ACAD_REACTORS
330
2A
102
}
102
{ACAD_XDICTIONARY
360
211
102
}
330
2A
100
AcDbVisualStyle
  2
Brighten
 70
    12
 71
     2
 72
     2
 73
     0
 90
        0
 40
-0.6
 41
-30.0
 62
     5
 63
     7
421
 16777215
 74
     1
 91
        4
 64
     7
 65
   257
 75
     1
175
     1
 42
1.0
 92
        8
 66
     7
 43
1.0
 76
     1
 77
     6
 78
     2
 67
     7
 79
     5
170
     0
171
     0
290
     0
174
     0
 93
        1
 44
50.0
173
     0
291
     1
 45
0.0
  0
VISUALSTYLE
  5
3A
102
{ACAD_REACTORS
330
2A
102
}
102
{ACAD_XDICTIONARY
360
219
102
}
330
2A
100
AcDbVisualStyle
  2
ColorChange
 70
    16
 71
     2
 72
     2
 73
     3
 90
        0
 40
-0.6
 41
-30.0
 62
     5
 63
     8
421
  8421504
 74
     1
 91
        4
 64
     7
 65
   257
 75
     1
175
     1
 42
1.0
 92
        8
 66
     8
424
  8421504
 43
1.0
 76
     1
 77
     6
 78
     2
 67
     7
 79
     5
170
     0
171
     0
290
     0
174
     0
 93
        1
 44
0.0
173
     0
291
     1
 45
0.0
  0
VISUALSTYLE
  5
34
102
{ACAD_REACTORS
330
2A
102
}
102
{ACAD_XDICTIONARY
360
20D
102
}
330
2A
100
AcDbVisualStyle
  2
Conceptual
 70
     9
 71
     3
 72
     2
 73
     0
 90
        0
 40
-0.6
 41
-30.0
 62
     5
 63
     7
421
 16777215
 74
     2
 91
        2
 64
     7
 65
   257
 75
     1
175
     1
 42
40.0
 92
        8
 66
     7
 43
1.0
 76
     1
 77
     6
 78
     2
 67
     7
 79
     3
170
     0
171
     0
290
     0
174
     0
 93
        1
 44
0.0
173
     0
291
     0
 45
0.0
  0
VISUALSTYLE
  5
35
102
{ACAD_REACTORS
330
2A
102
}
102
{ACAD_XDICTIONARY
360
20F
102
}
330
2A
100
AcDbVisualStyle
  2
Dim
 70
    11
 71
     2
 72
     2
 73
     0
 90
        0
 40
-0.6
 41
-30.0
 62
     5
 63
     7
421
 16777215
 74
     1
 91
        4
 64
     7
 65
   257
 75
     1
175
     1
 42
1.0
 92
        8
 66
     7
 43
1.0
 76
     1
 77
     6
 78
     2
 67
     7
 79
     5
170
     0
171
     0
290
     0
174
     0
 93
        1
 44
-50.0
173
     0
291
     1
 45
0.0
  0
VISUALSTYLE
  5
39
102
{ACAD_REACTORS
330
2A
102
}
102
{ACAD_XDICTIONARY
360
217
102
}
330
2A
100
AcDbVisualStyle
  2
Facepattern
 70
    15
 71
     2
 72
     2
 73
     0
 90
        0
 40
-0.6
 41
-30.0
 62
     5
 63
     7
421
 16777215
 74
     1
 91
        4
 64
     7
 65
   257
 75
     1
175
     1
 42
1.0
 92
        8
 66
     7
 43
1.0
 76
     1
 77
     6
 78
     2
 67
     7
 79
     5
170
     0
171
     0
290
     0
174
     0
 93
        1
 44
0.0
173
     0
291
     1
 45
0.0
  0
VISUALSTYLE
  5
2B
102
{ACAD_REACTORS
330
2A
102
}
102
{ACAD_XDICTIONARY
360
1FB
102
}
330
2A
100
AcDbVisualStyle
  2
Flat
 70
     0
 71
     2
 72
     1
 73
     1
 90
        2
 40
-0.6
 41
30.0
 62
     5
 63
     7
421
 16777215
 74
     0
 91
        4
 64
     7
 65
   257
 75
     1
175
     1
 42
1.0
 92
        8
 66
     7
 43
1.0
 76
     1
 77
     6
 78
     2
 67
     7
 79
     5
170
     0
171
     0
290
     0
174
     0
 93
       13
 44
0.0
173
     0
291
     1
 45
0.0
  0
VISUALSTYLE
  5
2C
102
{ACAD_REACTORS
330
2A
102
}
102
{ACAD_XDICTIONARY
360
1FD
102
}
330
2A
100
AcDbVisualStyle
  2
FlatWithEdges
 70
     1
 71
     2
 72
     1
 73
     1
 90
        2
 40
-0.6
 41
30.0
 62
     5
 63
     7
421
 16777215
 74
     1
 91
        4
 64
     7
 65
   257
 75
     1
175
     1
 42
1.0
 92
        0
 66
   257
 43
1.0
 76
     1
 77
     6
 78
     2
 67
     7
 79
     5
170
     0
171
     0
290
     0
174
     0
 93
       13
 44
0.0
173
     0
291
     1
 45
0.0
  0
VISUALSTYLE
  5
2D
102
{ACAD_REACTORS
330
2A
102
}
102
{ACAD_XDICTIONARY
360
1FF
102
}
330
2A
100
AcDbVisualStyle
  2
Gouraud
 70
     2
 71
     2
 72
     2
 73
     1
 90
        2
 40
-0.6
 41
30.0
 62
     5
 63
     7
421
 16777215
 74
     0
 91
        4
 64
     7
 65
   257
 75
     1
175
     1
 42
1.0
 92
        0
 66
     7
 43
1.0
 76
     1
 77
     6
 78
     2
 67
     7
 79
     5
170
     0
171
     0
290
     0
174
     0
 93
       13
 44
0.0
173
     0
291
     1
 45
0.0
  0
VISUALSTYLE
  5
2E
102
{ACAD_REACTORS
330
2A
102
}
102
{ACAD_XDICTIONARY
360
201
102
}
330
2A
100
AcDbVisualStyle
  2
GouraudWithEdges
 70
     3
 71
     2
 72
     2
 73
     1
 90
        2
 40
-0.6
 41
30.0
 62
     5
 63
     7
421
 16777215
 74
     1
 91
        4
 64
     7
 65
   257
 75
     1
175
     1
 42
1.0
 92
        0
 66
   257
 43
1.0
 76
     1
 77
     6
 78
     2
 67
     7
 79
     5
170
     0
171
     0
290
     0
174
     0
 93
       13
 44
0.0
173
     0
291
     1
 45
0.0
  0
VISUALSTYLE
  5
38
102
{ACAD_REACTORS
330
2A
102
}
102
{ACAD_XDICTIONARY
360
215
102
}
330
2A
100
AcDbVisualStyle
  2
Linepattern
 70
    14
 71
     2
 72
     2
 73
     0
 90
        0
 40
-0.6
 41
-30.0
 62
     5
 63
     7
421
 16777215
 74
     1
 91
        4
 64
     7
 65
   257
 75
     7
175
     7
 42
1.0
 92
        8
 66
     7
 43
1.0
 76
     1
 77
     6
 78
     2
 67
     7
 79
     5
170
     0
171
     0
290
     0
174
     0
 93
        1
 44
0.0
173
     0
291
     1
 45
0.0
  0
VISUALSTYLE
  5
33
102
{ACAD_REACTORS
330
2A
102
}
102
{ACAD_XDICTIONARY
360
20B
102
}
330
2A
100
AcDbVisualStyle
  2
Realistic
 70
     8
 71
     2
 72
     2
 73
     0
 90
        0
 40
-0.6
 41
-30.0
 62
     5
 63
     7
421
 16777215
 74
     1
 91
        0
 64
     7
 65
   257
 75
     1
175
     1
 42
1.0
 92
        8
 66
     8
424
  7895160
 43
1.0
 76
     1
 77
     6
 78
     2
 67
     7
 79
     5
170
     0
171
     0
290
     0
174
     0
 93
       13
 44
0.0
173
     0
291
     0
 45
0.0
  0
VISUALSTYLE
  5
37
102
{ACAD_REACTORS
330
2A
102
}
102
{ACAD_XDICTIONARY
360
213
102
}
330
2A
100
AcDbVisualStyle
  2
Thicken
 70
    13
 71
     2
 72
     2
 73
     0
 90
        0
 40
-0.6
 41
-30.0
 62
     5
 63
     7
421
 16777215
 74
     1
 91
        4
 64
     7
 65
   257
 75
     1
175
     1
 42
1.0
 92
       12
 66
     7
 43
1.0
 76
     1
 77
     6
 78
     2
 67
     7
 79
     5
170
     0
171
     0
290
     0
174
     0
 93
        1
 44
0.0
173
     0
291
     1
 45
0.0
  0
DICTIONARY
  5
203
330
2F
100
AcDbDictionary
280
     1
281
     1
  3
ACAD_XREC_ROUNDTRIP
360
204
  0
DICTIONARY
  5
207
330
31
100
AcDbDictionary
280
     1
281
     1
  3
ACAD_XREC_ROUNDTRIP
360
208
  0
DICTIONARY
  5
205
330
30
100
AcDbDictionary
280
     1
281
     1
  3
ACAD_XREC_ROUNDTRIP
360
206
  0
DICTIONARY
  5
209
330
32
100
AcDbDictionary
280
     1
281
     1
  3
ACAD_XREC_ROUNDTRIP
360
20A
  0
DICTIONARY
  5
211
330
36
100
AcDbDictionary
280
     1
281
     1
  3
ACAD_XREC_ROUNDTRIP
360
212
  0
DICTIONARY
  5
219
330
3A
100
AcDbDictionary
280
     1
281
     1
  3
ACAD_XREC_ROUNDTRIP
360
21A
  0
DICTIONARY
  5
20D
330
34
100
AcDbDictionary
280
     1
281
     1
  3
ACAD_XREC_ROUNDTRIP
360
20E
  0
DICTIONARY
  5
20F
330
35
100
AcDbDictionary
280
     1
281
     1
  3
ACAD_XREC_ROUNDTRIP
360
210
  0
DICTIONARY
  5
217
330
39
100
AcDbDictionary
280
     1
281
     1
  3
ACAD_XREC_ROUNDTRIP
360
218
  0
DICTIONARY
  5
1FB
330
2B
100
AcDbDictionary
280
     1
281
     1
  3
ACAD_XREC_ROUNDTRIP
360
1FC
  0
DICTIONARY
  5
1FD
330
2C
100
AcDbDictionary
280
     1
281
     1
  3
ACAD_XREC_ROUNDTRIP
360
1FE
  0
DICTIONARY
  5
1FF
330
2D
100
AcDbDictionary
280
     1
281
     1
  3
ACAD_XREC_ROUNDTRIP
360
200
  0
DICTIONARY
  5
201
330
2E
100
AcDbDictionary
280
     1
281
     1
  3
ACAD_XREC_ROUNDTRIP
360
202
  0
DICTIONARY
  5
215
330
38
100
AcDbDictionary
280
     1
281
     1
  3
ACAD_XREC_ROUNDTRIP
360
216
  0
DICTIONARY
  5
20B
330
33
100
AcDbDictionary
280
     1
281
     1
  3
ACAD_XREC_ROUNDTRIP
360
20C
  0
DICTIONARY
  5
213
330
37
100
AcDbDictionary
280
     1
281
     1
  3
ACAD_XREC_ROUNDTRIP
360
214
  0
XRECORD
  5
204
102
{ACAD_REACTORS
330
203
102
}
330
203
100
AcDbXrecord
280
     1
102
RTVSPropertyOp0
 70
     1
102
RTVSPropertyOp1
 70
     1
102
RTVSPropertyOp2
 70
     1
102
RTVSPropertyOp3
 70
     1
102
RTVSPropertyOp4
 70
     1
102
RTVSPropertyOp5
 70
     1
102
RTVSPropertyOp6
 70
     1
102
RTVSPropertyOp7
 70
     1
102
RTVSPropertyOp8
 70
     1
102
RTVSPropertyOp9
 70
     1
102
RTVSPropertyOp10
 70
     1
102
RTVSPropertyOp11
 70
     1
102
RTVSPropertyOp12
 70
     1
102
RTVSPropertyOp13
 70
     1
102
RTVSPropertyOp14
 70
     1
102
RTVSPropertyOp15
 70
     1
102
RTVSPropertyOp16
 70
     1
102
RTVSPropertyOp17
 70
     1
102
RTVSPropertyOp18
 70
     1
102
RTVSPropertyOp19
 70
     1
102
RTVSPropertyOp20
 70
     1
102
RTVSPropertyOp21
 70
     1
102
RTVSPropertyOp22
 70
     1
102
RTVSPropertyOp23
 70
     1
102
RTVSPropertyOp24
 70
     1
102
RTVSPropertyOp25
 70
     1
102
RTVSPropertyOp26
 70
     1
102
RTVSPropertyOp27
 70
     1
102
RTVSPropertyOp28
 70
     1
102
RTVSPropertyOp29
 70
     1
102
RTVSPropertyOp30
 70
     1
102
RTVSPropertyOp31
 70
     1
102
RTVSPropertyOp32
 70
     1
  0
XRECORD
  5
208
102
{ACAD_REACTORS
330
207
102
}
330
207
100
AcDbXrecord
280
     1
102
RTVSPropertyOp0
 70
     1
102
RTVSPropertyOp1
 70
     1
102
RTVSPropertyOp2
 70
     1
102
RTVSPropertyOp3
 70
     1
102
RTVSPropertyOp4
 70
     1
102
RTVSPropertyOp5
 70
     1
102
RTVSPropertyOp6
 70
     1
102
RTVSPropertyOp7
 70
     1
102
RTVSPropertyOp8
 70
     1
102
RTVSPropertyOp9
 70
     1
102
RTVSPropertyOp10
 70
     1
102
RTVSPropertyOp11
 70
     1
102
RTVSPropertyOp12
 70
     1
102
RTVSPropertyOp13
 70
     1
102
RTVSPropertyOp14
 70
     1
102
RTVSPropertyOp15
 70
     1
102
RTVSPropertyOp16
 70
     1
102
RTVSPropertyOp17
 70
     1
102
RTVSPropertyOp18
 70
     1
102
RTVSPropertyOp19
 70
     1
102
RTVSPropertyOp20
 70
     1
102
RTVSPropertyOp21
 70
     1
102
RTVSPropertyOp22
 70
     1
102
RTVSPropertyOp23
 70
     1
102
RTVSPropertyOp24
 70
     1
102
RTVSPropertyOp25
 70
     1
102
RTVSPropertyOp26
 70
     1
102
RTVSPropertyOp27
 70
     1
102
RTVSPropertyOp28
 70
     1
102
RTVSPropertyOp29
 70
     1
102
RTVSPropertyOp30
 70
     1
102
RTVSPropertyOp31
 70
     1
102
RTVSPropertyOp32
 70
     1
  0
XRECORD
  5
206
102
{ACAD_REACTORS
330
205
102
}
330
205
100
AcDbXrecord
280
     1
102
RTVSPropertyOp0
 70
     1
102
RTVSPropertyOp1
 70
     1
102
RTVSPropertyOp2
 70
     1
102
RTVSPropertyOp3
 70
     1
102
RTVSPropertyOp4
 70
     1
102
RTVSPropertyOp5
 70
     1
102
RTVSPropertyOp6
 70
     1
102
RTVSPropertyOp7
 70
     1
102
RTVSPropertyOp8
 70
     1
102
RTVSPropertyOp9
 70
     1
102
RTVSPropertyOp10
 70
     1
102
RTVSPropertyOp11
 70
     1
102
RTVSPropertyOp12
 70
     1
102
RTVSPropertyOp13
 70
     1
102
RTVSPropertyOp14
 70
     1
102
RTVSPropertyOp15
 70
     1
102
RTVSPropertyOp16
 70
     1
102
RTVSPropertyOp17
 70
     1
102
RTVSPropertyOp18
 70
     1
102
RTVSPropertyOp19
 70
     1
102
RTVSPropertyOp20
 70
     1
102
RTVSPropertyOp21
 70
     1
102
RTVSPropertyOp22
 70
     1
102
RTVSPropertyOp23
 70
     1
102
RTVSPropertyOp24
 70
     1
102
RTVSPropertyOp25
 70
     1
102
RTVSPropertyOp26
 70
     1
102
RTVSPropertyOp27
 70
     1
102
RTVSPropertyOp28
 70
     1
102
RTVSPropertyOp29
 70
     1
102
RTVSPropertyOp30
 70
     1
102
RTVSPropertyOp31
 70
     1
102
RTVSPropertyOp32
 70
     1
  0
XRECORD
  5
20A
102
{ACAD_REACTORS
330
209
102
}
330
209
100
AcDbXrecord
280
     1
102
RTVSPropertyOp0
 70
     1
102
RTVSPropertyOp1
 70
     1
102
RTVSPropertyOp2
 70
     1
102
RTVSPropertyOp3
 70
     1
102
RTVSPropertyOp4
 70
     1
102
RTVSPropertyOp5
 70
     1
102
RTVSPropertyOp6
 70
     1
102
RTVSPropertyOp7
 70
     1
102
RTVSPropertyOp8
 70
     1
102
RTVSPropertyOp9
 70
     1
102
RTVSPropertyOp10
 70
     1
102
RTVSPropertyOp11
 70
     1
102
RTVSPropertyOp12
 70
     1
102
RTVSPropertyOp13
 70
     1
102
RTVSPropertyOp14
 70
     1
102
RTVSPropertyOp15
 70
     1
102
RTVSPropertyOp16
 70
     1
102
RTVSPropertyOp17
 70
     1
102
RTVSPropertyOp18
 70
     1
102
RTVSPropertyOp19
 70
     1
102
RTVSPropertyOp20
 70
     1
102
RTVSPropertyOp21
 70
     1
102
RTVSPropertyOp22
 70
     1
102
RTVSPropertyOp23
 70
     1
102
RTVSPropertyOp24
 70
     1
102
RTVSPropertyOp25
 70
     1
102
RTVSPropertyOp26
 70
     1
102
RTVSPropertyOp27
 70
     1
102
RTVSPropertyOp28
 70
     1
102
RTVSPropertyOp29
 70
     1
102
RTVSPropertyOp30
 70
     1
102
RTVSPropertyOp31
 70
     1
102
RTVSPropertyOp32
 70
     1
  0
XRECORD
  5
212
102
{ACAD_REACTORS
330
211
102
}
330
211
100
AcDbXrecord
280
     1
102
RTVSPropertyOp0
 70
     1
102
RTVSPropertyOp1
 70
     1
102
RTVSPropertyOp2
 70
     1
102
RTVSPropertyOp3
 70
     1
102
RTVSPropertyOp4
 70
     1
102
RTVSPropertyOp5
 70
     1
102
RTVSPropertyOp6
 70
     1
102
RTVSPropertyOp7
 70
     1
102
RTVSPropertyOp8
 70
     1
102
RTVSPropertyOp9
 70
     1
102
RTVSPropertyOp10
 70
     1
102
RTVSPropertyOp11
 70
     1
102
RTVSPropertyOp12
 70
     1
102
RTVSPropertyOp13
 70
     1
102
RTVSPropertyOp14
 70
     1
102
RTVSPropertyOp15
 70
     1
102
RTVSPropertyOp16
 70
     1
102
RTVSPropertyOp17
 70
     1
102
RTVSPropertyOp18
 70
     1
102
RTVSPropertyOp19
 70
     1
102
RTVSPropertyOp20
 70
     1
102
RTVSPropertyOp21
 70
     1
102
RTVSPropertyOp22
 70
     1
102
RTVSPropertyOp23
 70
     1
102
RTVSPropertyOp24
 70
     1
102
RTVSPropertyOp25
 70
     1
102
RTVSPropertyOp26
 70
     1
102
RTVSPropertyOp27
 70
     1
102
RTVSPropertyOp28
 70
     1
102
RTVSPropertyOp29
 70
     1
102
RTVSPropertyOp30
 70
     1
102
RTVSPropertyOp31
 70
     1
102
RTVSPropertyOp32
 70
     1
  0
XRECORD
  5
21A
102
{ACAD_REACTORS
330
219
102
}
330
219
100
AcDbXrecord
280
     1
102
RTVSPropertyOp0
 70
     1
102
RTVSPropertyOp1
 70
     1
102
RTVSPropertyOp2
 70
     1
102
RTVSPropertyOp3
 70
     1
102
RTVSPropertyOp4
 70
     1
102
RTVSPropertyOp5
 70
     1
102
RTVSPropertyOp6
 70
     1
102
RTVSPropertyOp7
 70
     1
102
RTVSPropertyOp8
 70
     1
102
RTVSPropertyOp9
 70
     1
102
RTVSPropertyOp10
 70
     1
102
RTVSPropertyOp11
 70
     1
102
RTVSPropertyOp12
 70
     1
102
RTVSPropertyOp13
 70
     1
102
RTVSPropertyOp14
 70
     1
102
RTVSPropertyOp15
 70
     1
102
RTVSPropertyOp16
 70
     1
102
RTVSPropertyOp17
 70
     1
102
RTVSPropertyOp18
 70
     1
102
RTVSPropertyOp19
 70
     1
102
RTVSPropertyOp20
 70
     1
102
RTVSPropertyOp21
 70
     1
102
RTVSPropertyOp22
 70
     1
102
RTVSPropertyOp23
 70
     1
102
RTVSPropertyOp24
 70
     1
102
RTVSPropertyOp25
 70
     1
102
RTVSPropertyOp26
 70
     1
102
RTVSPropertyOp27
 70
     1
102
RTVSPropertyOp28
 70
     1
102
RTVSPropertyOp29
 70
     1
102
RTVSPropertyOp30
 70
     1
102
RTVSPropertyOp31
 70
     1
102
RTVSPropertyOp32
 70
     1
  0
XRECORD
  5
20E
102
{ACAD_REACTORS
330
20D
102
}
330
20D
100
AcDbXrecord
280
     1
102
RTVSPropertyOp0
 70
     1
102
RTVSPropertyOp1
 70
     1
102
RTVSPropertyOp2
 70
     1
102
RTVSPropertyOp3
 70
     1
102
RTVSPropertyOp4
 70
     1
102
RTVSPropertyOp5
 70
     1
102
RTVSPropertyOp6
 70
     1
102
RTVSPropertyOp7
 70
     1
102
RTVSPropertyOp8
 70
     1
102
RTVSPropertyOp9
 70
     1
102
RTVSPropertyOp10
 70
     1
102
RTVSPropertyOp11
 70
     1
102
RTVSPropertyOp12
 70
     1
102
RTVSPropertyOp13
 70
     1
102
RTVSPropertyOp14
 70
     1
102
RTVSPropertyOp15
 70
     1
102
RTVSPropertyOp16
 70
     1
102
RTVSPropertyOp17
 70
     1
102
RTVSPropertyOp18
 70
     1
102
RTVSPropertyOp19
 70
     1
102
RTVSPropertyOp20
 70
     1
102
RTVSPropertyOp21
 70
     1
102
RTVSPropertyOp22
 70
     1
102
RTVSPropertyOp23
 70
     1
102
RTVSPropertyOp24
 70
     1
102
RTVSPropertyOp25
 70
     1
102
RTVSPropertyOp26
 70
     1
102
RTVSPropertyOp27
 70
     1
102
RTVSPropertyOp28
 70
     1
102
RTVSPropertyOp29
 70
     1
102
RTVSPropertyOp30
 70
     1
102
RTVSPropertyOp31
 70
     1
102
RTVSPropertyOp32
 70
     1
  0
XRECORD
  5
210
102
{ACAD_REACTORS
330
20F
102
}
330
20F
100
AcDbXrecord
280
     1
102
RTVSPropertyOp0
 70
     1
102
RTVSPropertyOp1
 70
     1
102
RTVSPropertyOp2
 70
     1
102
RTVSPropertyOp3
 70
     1
102
RTVSPropertyOp4
 70
     1
102
RTVSPropertyOp5
 70
     1
102
RTVSPropertyOp6
 70
     1
102
RTVSPropertyOp7
 70
     1
102
RTVSPropertyOp8
 70
     1
102
RTVSPropertyOp9
 70
     1
102
RTVSPropertyOp10
 70
     1
102
RTVSPropertyOp11
 70
     1
102
RTVSPropertyOp12
 70
     1
102
RTVSPropertyOp13
 70
     1
102
RTVSPropertyOp14
 70
     1
102
RTVSPropertyOp15
 70
     1
102
RTVSPropertyOp16
 70
     1
102
RTVSPropertyOp17
 70
     1
102
RTVSPropertyOp18
 70
     1
102
RTVSPropertyOp19
 70
     1
102
RTVSPropertyOp20
 70
     1
102
RTVSPropertyOp21
 70
     1
102
RTVSPropertyOp22
 70
     1
102
RTVSPropertyOp23
 70
     1
102
RTVSPropertyOp24
 70
     1
102
RTVSPropertyOp25
 70
     1
102
RTVSPropertyOp26
 70
     1
102
RTVSPropertyOp27
 70
     1
102
RTVSPropertyOp28
 70
     1
102
RTVSPropertyOp29
 70
     1
102
RTVSPropertyOp30
 70
     1
102
RTVSPropertyOp31
 70
     1
102
RTVSPropertyOp32
 70
     1
  0
XRECORD
  5
218
102
{ACAD_REACTORS
330
217
102
}
330
217
100
AcDbXrecord
280
     1
102
RTVSPropertyOp0
 70
     1
102
RTVSPropertyOp1
 70
     1
102
RTVSPropertyOp2
 70
     1
102
RTVSPropertyOp3
 70
     1
102
RTVSPropertyOp4
 70
     1
102
RTVSPropertyOp5
 70
     1
102
RTVSPropertyOp6
 70
     1
102
RTVSPropertyOp7
 70
     1
102
RTVSPropertyOp8
 70
     1
102
RTVSPropertyOp9
 70
     1
102
RTVSPropertyOp10
 70
     1
102
RTVSPropertyOp11
 70
     1
102
RTVSPropertyOp12
 70
     1
102
RTVSPropertyOp13
 70
     1
102
RTVSPropertyOp14
 70
     1
102
RTVSPropertyOp15
 70
     1
102
RTVSPropertyOp16
 70
     1
102
RTVSPropertyOp17
 70
     1
102
RTVSPropertyOp18
 70
     1
102
RTVSPropertyOp19
 70
     1
102
RTVSPropertyOp20
 70
     1
102
RTVSPropertyOp21
 70
     1
102
RTVSPropertyOp22
 70
     1
102
RTVSPropertyOp23
 70
     1
102
RTVSPropertyOp24
 70
     1
102
RTVSPropertyOp25
 70
     1
102
RTVSPropertyOp26
 70
     1
102
RTVSPropertyOp27
 70
     1
102
RTVSPropertyOp28
 70
     1
102
RTVSPropertyOp29
 70
     1
102
RTVSPropertyOp30
 70
     1
102
RTVSPropertyOp31
 70
     1
102
RTVSPropertyOp32
 70
     1
  0
XRECORD
  5
1FC
102
{ACAD_REACTORS
330
1FB
102
}
330
1FB
100
AcDbXrecord
280
     1
102
RTVSPropertyOp0
 70
     1
102
RTVSPropertyOp1
 70
     1
102
RTVSPropertyOp2
 70
     1
102
RTVSPropertyOp3
 70
     1
102
RTVSPropertyOp4
 70
     1
102
RTVSPropertyOp5
 70
     1
102
RTVSPropertyOp6
 70
     1
102
RTVSPropertyOp7
 70
     1
102
RTVSPropertyOp8
 70
     1
102
RTVSPropertyOp9
 70
     1
102
RTVSPropertyOp10
 70
     1
102
RTVSPropertyOp11
 70
     1
102
RTVSPropertyOp12
 70
     1
102
RTVSPropertyOp13
 70
     1
102
RTVSPropertyOp14
 70
     1
102
RTVSPropertyOp15
 70
     1
102
RTVSPropertyOp16
 70
     1
102
RTVSPropertyOp17
 70
     1
102
RTVSPropertyOp18
 70
     1
102
RTVSPropertyOp19
 70
     1
102
RTVSPropertyOp20
 70
     1
102
RTVSPropertyOp21
 70
     1
102
RTVSPropertyOp22
 70
     1
102
RTVSPropertyOp23
 70
     1
102
RTVSPropertyOp24
 70
     1
102
RTVSPropertyOp25
 70
     1
102
RTVSPropertyOp26
 70
     1
102
RTVSPropertyOp27
 70
     1
102
RTVSPropertyOp28
 70
     1
102
RTVSPropertyOp29
 70
     1
102
RTVSPropertyOp30
 70
     1
102
RTVSPropertyOp31
 70
     1
102
RTVSPropertyOp32
 70
     1
  0
XRECORD
  5
1FE
102
{ACAD_REACTORS
330
1FD
102
}
330
1FD
100
AcDbXrecord
280
     1
102
RTVSPropertyOp0
 70
     1
102
RTVSPropertyOp1
 70
     1
102
RTVSPropertyOp2
 70
     1
102
RTVSPropertyOp3
 70
     1
102
RTVSPropertyOp4
 70
     1
102
RTVSPropertyOp5
 70
     1
102
RTVSPropertyOp6
 70
     1
102
RTVSPropertyOp7
 70
     1
102
RTVSPropertyOp8
 70
     1
102
RTVSPropertyOp9
 70
     1
102
RTVSPropertyOp10
 70
     1
102
RTVSPropertyOp11
 70
     1
102
RTVSPropertyOp12
 70
     1
102
RTVSPropertyOp13
 70
     1
102
RTVSPropertyOp14
 70
     1
102
RTVSPropertyOp15
 70
     1
102
RTVSPropertyOp16
 70
     1
102
RTVSPropertyOp17
 70
     1
102
RTVSPropertyOp18
 70
     1
102
RTVSPropertyOp19
 70
     1
102
RTVSPropertyOp20
 70
     1
102
RTVSPropertyOp21
 70
     1
102
RTVSPropertyOp22
 70
     1
102
RTVSPropertyOp23
 70
     1
102
RTVSPropertyOp24
 70
     1
102
RTVSPropertyOp25
 70
     1
102
RTVSPropertyOp26
 70
     1
102
RTVSPropertyOp27
 70
     1
102
RTVSPropertyOp28
 70
     1
102
RTVSPropertyOp29
 70
     1
102
RTVSPropertyOp30
 70
     1
102
RTVSPropertyOp31
 70
     1
102
RTVSPropertyOp32
 70
     1
  0
XRECORD
  5
200
102
{ACAD_REACTORS
330
1FF
102
}
330
1FF
100
AcDbXrecord
280
     1
102
RTVSPropertyOp0
 70
     1
102
RTVSPropertyOp1
 70
     1
102
RTVSPropertyOp2
 70
     1
102
RTVSPropertyOp3
 70
     1
102
RTVSPropertyOp4
 70
     1
102
RTVSPropertyOp5
 70
     1
102
RTVSPropertyOp6
 70
     1
102
RTVSPropertyOp7
 70
     1
102
RTVSPropertyOp8
 70
     1
102
RTVSPropertyOp9
 70
     1
102
RTVSPropertyOp10
 70
     1
102
RTVSPropertyOp11
 70
     1
102
RTVSPropertyOp12
 70
     1
102
RTVSPropertyOp13
 70
     1
102
RTVSPropertyOp14
 70
     1
102
RTVSPropertyOp15
 70
     1
102
RTVSPropertyOp16
 70
     1
102
RTVSPropertyOp17
 70
     1
102
RTVSPropertyOp18
 70
     1
102
RTVSPropertyOp19
 70
     1
102
RTVSPropertyOp20
 70
     1
102
RTVSPropertyOp21
 70
     1
102
RTVSPropertyOp22
 70
     1
102
RTVSPropertyOp23
 70
     1
102
RTVSPropertyOp24
 70
     1
102
RTVSPropertyOp25
 70
     1
102
RTVSPropertyOp26
 70
     1
102
RTVSPropertyOp27
 70
     1
102
RTVSPropertyOp28
 70
     1
102
RTVSPropertyOp29
 70
     1
102
RTVSPropertyOp30
 70
     1
102
RTVSPropertyOp31
 70
     1
102
RTVSPropertyOp32
 70
     1
  0
XRECORD
  5
202
102
{ACAD_REACTORS
330
201
102
}
330
201
100
AcDbXrecord
280
     1
102
RTVSPropertyOp0
 70
     1
102
RTVSPropertyOp1
 70
     1
102
RTVSPropertyOp2
 70
     1
102
RTVSPropertyOp3
 70
     1
102
RTVSPropertyOp4
 70
     1
102
RTVSPropertyOp5
 70
     1
102
RTVSPropertyOp6
 70
     1
102
RTVSPropertyOp7
 70
     1
102
RTVSPropertyOp8
 70
     1
102
RTVSPropertyOp9
 70
     1
102
RTVSPropertyOp10
 70
     1
102
RTVSPropertyOp11
 70
     1
102
RTVSPropertyOp12
 70
     1
102
RTVSPropertyOp13
 70
     1
102
RTVSPropertyOp14
 70
     1
102
RTVSPropertyOp15
 70
     1
102
RTVSPropertyOp16
 70
     1
102
RTVSPropertyOp17
 70
     1
102
RTVSPropertyOp18
 70
     1
102
RTVSPropertyOp19
 70
     1
102
RTVSPropertyOp20
 70
     1
102
RTVSPropertyOp21
 70
     1
102
RTVSPropertyOp22
 70
     1
102
RTVSPropertyOp23
 70
     1
102
RTVSPropertyOp24
 70
     1
102
RTVSPropertyOp25
 70
     1
102
RTVSPropertyOp26
 70
     1
102
RTVSPropertyOp27
 70
     1
102
RTVSPropertyOp28
 70
     1
102
RTVSPropertyOp29
 70
     1
102
RTVSPropertyOp30
 70
     1
102
RTVSPropertyOp31
 70
     1
102
RTVSPropertyOp32
 70
     1
  0
XRECORD
  5
216
102
{ACAD_REACTORS
330
215
102
}
330
215
100
AcDbXrecord
280
     1
102
RTVSPropertyOp0
 70
     1
102
RTVSPropertyOp1
 70
     1
102
RTVSPropertyOp2
 70
     1
102
RTVSPropertyOp3
 70
     1
102
RTVSPropertyOp4
 70
     1
102
RTVSPropertyOp5
 70
     1
102
RTVSPropertyOp6
 70
     1
102
RTVSPropertyOp7
 70
     1
102
RTVSPropertyOp8
 70
     1
102
RTVSPropertyOp9
 70
     1
102
RTVSPropertyOp10
 70
     1
102
RTVSPropertyOp11
 70
     1
102
RTVSPropertyOp12
 70
     1
102
RTVSPropertyOp13
 70
     1
102
RTVSPropertyOp14
 70
     1
102
RTVSPropertyOp15
 70
     1
102
RTVSPropertyOp16
 70
     1
102
RTVSPropertyOp17
 70
     1
102
RTVSPropertyOp18
 70
     1
102
RTVSPropertyOp19
 70
     1
102
RTVSPropertyOp20
 70
     1
102
RTVSPropertyOp21
 70
     1
102
RTVSPropertyOp22
 70
     1
102
RTVSPropertyOp23
 70
     1
102
RTVSPropertyOp24
 70
     1
102
RTVSPropertyOp25
 70
     1
102
RTVSPropertyOp26
 70
     1
102
RTVSPropertyOp27
 70
     1
102
RTVSPropertyOp28
 70
     1
102
RTVSPropertyOp29
 70
     1
102
RTVSPropertyOp30
 70
     1
102
RTVSPropertyOp31
 70
     1
102
RTVSPropertyOp32
 70
     1
  0
XRECORD
  5
20C
102
{ACAD_REACTORS
330
20B
102
}
330
20B
100
AcDbXrecord
280
     1
102
RTVSPropertyOp0
 70
     1
102
RTVSPropertyOp1
 70
     1
102
RTVSPropertyOp2
 70
     1
102
RTVSPropertyOp3
 70
     1
102
RTVSPropertyOp4
 70
     1
102
RTVSPropertyOp5
 70
     1
102
RTVSPropertyOp6
 70
     1
102
RTVSPropertyOp7
 70
     1
102
RTVSPropertyOp8
 70
     1
102
RTVSPropertyOp9
 70
     1
102
RTVSPropertyOp10
 70
     1
102
RTVSPropertyOp11
 70
     1
102
RTVSPropertyOp12
 70
     1
102
RTVSPropertyOp13
 70
     1
102
RTVSPropertyOp14
 70
     1
102
RTVSPropertyOp15
 70
     1
102
RTVSPropertyOp16
 70
     1
102
RTVSPropertyOp17
 70
     1
102
RTVSPropertyOp18
 70
     1
102
RTVSPropertyOp19
 70
     1
102
RTVSPropertyOp20
 70
     1
102
RTVSPropertyOp21
 70
     1
102
RTVSPropertyOp22
 70
     1
102
RTVSPropertyOp23
 70
     1
102
RTVSPropertyOp24
 70
     1
102
RTVSPropertyOp25
 70
     1
102
RTVSPropertyOp26
 70
     1
102
RTVSPropertyOp27
 70
     1
102
RTVSPropertyOp28
 70
     1
102
RTVSPropertyOp29
 70
     1
102
RTVSPropertyOp30
 70
     1
102
RTVSPropertyOp31
 70
     1
102
RTVSPropertyOp32
 70
     1
  0
XRECORD
  5
214
102
{ACAD_REACTORS
330
213
102
}
330
213
100
AcDbXrecord
280
     1
102
RTVSPropertyOp0
 70
     1
102
RTVSPropertyOp1
 70
     1
102
RTVSPropertyOp2
 70
     1
102
RTVSPropertyOp3
 70
     1
102
RTVSPropertyOp4
 70
     1
102
RTVSPropertyOp5
 70
     1
102
RTVSPropertyOp6
 70
     1
102
RTVSPropertyOp7
 70
     1
102
RTVSPropertyOp8
 70
     1
102
RTVSPropertyOp9
 70
     1
102
RTVSPropertyOp10
 70
     1
102
RTVSPropertyOp11
 70
     1
102
RTVSPropertyOp12
 70
     1
102
RTVSPropertyOp13
 70
     1
102
RTVSPropertyOp14
 70
     1
102
RTVSPropertyOp15
 70
     1
102
RTVSPropertyOp16
 70
     1
102
RTVSPropertyOp17
 70
     1
102
RTVSPropertyOp18
 70
     1
102
RTVSPropertyOp19
 70
     1
102
RTVSPropertyOp20
 70
     1
102
RTVSPropertyOp21
 70
     1
102
RTVSPropertyOp22
 70
     1
102
RTVSPropertyOp23
 70
     1
102
RTVSPropertyOp24
 70
     1
102
RTVSPropertyOp25
 70
     1
102
RTVSPropertyOp26
 70
     1
102
RTVSPropertyOp27
 70
     1
102
RTVSPropertyOp28
 70
     1
102
RTVSPropertyOp29
 70
     1
102
RTVSPropertyOp30
 70
     1
102
RTVSPropertyOp31
 70
     1
102
RTVSPropertyOp32
 70
     1
  0
ENDSEC
  0
EOF
