0
SECTION
2
HEADER
9
$INSUNITS
70
4
9
$ACADVER
1
AC1014
9
$HANDSEED
5
FFFF
0
ENDSEC
0
SECTION
2
TABLES
0
TABLE
2
VPORT
5
8
100
AcDbSymbolTable
0
ENDTAB
0
TABLE
2
LTYPE
5
5
100
AcDbSymbolTable
0
LTYPE
5
14
100
AcDbSymbolTableRecord
100
AcDbLinetypeTableRecord
2
BYBLOCK
70
0
0
LTYPE
5
15
100
AcDbSymbolTableRecord
100
AcDbLinetypeTableRecord
2
BYLAYER
70
0
0
ENDTAB
0
TABLE
2
LAYER
5
2
100
AcDbSymbolTable
70
2
0
LAYER
5
50
100
AcDbSymbolTableRecord
100
AcDbLayerTableRecord
2
0
70
0
6
CONTINUOUS
0
ENDTAB
0
TABLE
2
STYLE
5
3
100
AcDbSymbolTable
70
1
0
STYLE
5
11
100
AcDbSymbolTableRecord
100
AcDbTextStyleTableRecord
2
STANDARD
70
0
0
ENDTAB
0
TABLE
2
VIEW
5
6
100
AcDbSymbolTable
70
0
0
ENDTAB
0
TABLE
2
UCS
5
7
100
AcDbSymbolTable
70
0
0
ENDTAB
0
TABLE
2
APPID
5
9
100
AcDbSymbolTable
70
2
0
APPID
5
12
100
AcDbSymbolTableRecord
100
AcDbRegAppTableRecord
2
ACAD
70
0
0
ENDTAB
0
TABLE
2
DIMSTYLE
5
A
100
AcDbSymbolTable
70
1
0
ENDTAB
0
TABLE
2
BLOCK_RECORD
5
1
100
AcDbSymbolTable
70
1
0
BLOCK_RECORD
5
1F
100
AcDbSymbolTableRecord
100
AcDbBlockTableRecord
2
*MODEL_SPACE
0
BLOCK_RECORD
5
1B
100
AcDbSymbolTableRecord
100
AcDbBlockTableRecord
2
*PAPER_SPACE
0
ENDTAB
0
ENDSEC
0
SECTION
2
BLOCKS
0
BLOCK
5
20
100
AcDbEntity
100
AcDbBlockBegin
2
*MODEL_SPACE
0
ENDBLK
5
21
100
AcDbEntity
100
AcDbBlockEnd
0
BLOCK
5
1C
100
AcDbEntity
100
AcDbBlockBegin
2
*PAPER_SPACE
0
ENDBLK
5
1D
100
AcDbEntity
100
AcDbBlockEnd
0
ENDSEC
0
SECTION
2
ENTITIES
0
LINE
5
100
100
AcDbEntity
8
0
100
AcDbLine
10
420
20
292.00000000000006
30
0
11
420
21
4.9999999999999645
31
0
0
LINE
5
101
100
AcDbEntity
8
0
100
AcDbLine
10
415.00000000000006
20
0
30
0
11
405
21
5.5511151231257827e-15
31
0
0
LINE
5
102
100
AcDbEntity
8
0
100
AcDbLine
10
385
20
297
30
0
11
415.00000000000006
21
297
31
0
0
LINE
5
103
100
AcDbEntity
8
0
100
AcDbLine
10
406.49999912641937
20
9.6999999999999886
30
0
11
404.99999912641943
21
9.6999999999999886
31
0
0
LINE
5
104
100
AcDbEntity
8
0
100
AcDbLine
10
406.49999912641937
20
29.699999999999989
30
0
11
406.49999912641937
21
33.270714214271422
31
0
0
LINE
5
105
100
AcDbEntity
8
0
100
AcDbLine
10
406.49999912641937
20
29.699999999999989
30
0
11
404.99999912641943
21
29.699999999999989
31
0
0
LINE
5
106
100
AcDbEntity
8
0
100
AcDbLine
10
406.49999912641937
20
9.6999999999999886
30
0
11
406.49999912641937
21
13.270714214271422
31
0
0
LINE
5
107
100
AcDbEntity
8
0
100
AcDbLine
10
413.49999912641943
20
29.699999999999989
30
0
11
414.99999912641943
21
29.699999999999989
31
0
0
LINE
5
108
100
AcDbEntity
8
0
100
AcDbLine
10
413.49999912641943
20
29.699999999999989
30
0
11
413.49999912641943
21
33.270714214271422
31
0
0
LINE
5
109
100
AcDbEntity
8
0
100
AcDbLine
10
413.49999912641943
20
9.6999999999999886
30
0
11
414.99999912641943
21
9.6999999999999886
31
0
0
LINE
5
110
100
AcDbEntity
8
0
100
AcDbLine
10
413.49999912641943
20
9.6999999999999886
30
0
11
413.49999912641943
21
13.270714214271422
31
0
0
ARC
5
111
100
AcDbEntity
8
0
100
AcDbCircle
10
409.99999912641943
20
9.6999999999999886
30
0
40
5
210
0
220
0
230
1
100
AcDbArc
50
-180
51
0
0
ARC
5
112
100
AcDbEntity
8
0
100
AcDbCircle
10
409.99999912641943
20
29.699999999999989
30
0
40
5
210
0
220
0
230
1
100
AcDbArc
50
-180
51
0
0
LINE
5
113
100
AcDbEntity
8
0
100
AcDbLine
10
376.50000087358057
20
5.0999999999999881
30
0
11
375.00000087358057
21
5.0999999999999881
31
0
0
LINE
5
114
100
AcDbEntity
8
0
100
AcDbLine
10
383.50000087358063
20
5.0999999999999881
30
0
11
383.50000087358063
21
6.8853571071357047
31
0
0
ARC
5
115
100
AcDbEntity
8
0
100
AcDbCircle
10
380.00000087358057
20
5.0999999999999881
30
0
40
5
210
0
220
0
230
1
100
AcDbArc
50
-180
51
0
0
LINE
5
116
100
AcDbEntity
8
0
100
AcDbLine
10
376.50000087358057
20
5.0999999999999881
30
0
11
376.50000087358057
21
6.8853571071357047
31
0
0
LINE
5
117
100
AcDbEntity
8
0
100
AcDbLine
10
383.50000087358063
20
5.0999999999999881
30
0
11
385.00000087358057
21
5.0999999999999881
31
0
0
LWPOLYLINE
5
118
100
AcDbEntity
8
0
100
AcDbPolyline
90
4
70
1
43
0.0
10
365.99999949336052
20
199.99999706447119
10
373.99999961256981
20
199.99999706447119
10
373.99999961256981
20
200.2999970644712
10
365.99999949336052
20
200.2999970644712
0
LWPOLYLINE
5
119
100
AcDbEntity
8
0
100
AcDbPolyline
90
4
70
1
43
0.0
10
365.99999949336052
20
269.99999706447124
10
373.99999961256981
20
269.99999706447124
10
373.99999961256981
20
270.29999706447131
10
365.99999949336052
20
270.29999706447131
0
LWPOLYLINE
5
120
100
AcDbEntity
8
0
100
AcDbPolyline
90
4
70
1
43
0.0
10
375
20
189.99999706447119
10
375
20
190.2999970644712
10
365.99999949336052
20
190.2999970644712
10
365.99999949336052
20
189.99999706447119
0
LWPOLYLINE
5
121
100
AcDbEntity
8
0
100
AcDbPolyline
90
4
70
1
43
0.0
10
365.99999949336052
20
229.99999706447127
10
365.99999949336052
20
230.29999706447128
10
373.99999961256981
20
230.29999706447128
10
373.99999961256981
20
229.99999706447127
0
LWPOLYLINE
5
122
100
AcDbEntity
8
0
100
AcDbPolyline
90
4
70
1
43
0.0
10
365.99999949336052
20
259.99999706447124
10
373.99999961256981
20
259.99999706447124
10
373.99999961256981
20
260.29999706447131
10
365.99999949336052
20
260.29999706447131
0
LWPOLYLINE
5
123
100
AcDbEntity
8
0
100
AcDbPolyline
90
4
70
1
43
0.0
10
365.99999949336052
20
219.99999706447127
10
373.99999961256981
20
219.99999706447127
10
373.99999961256981
20
220.29999706447128
10
365.99999949336052
20
220.29999706447128
0
LWPOLYLINE
5
124
100
AcDbEntity
8
0
100
AcDbPolyline
90
4
70
1
43
0.0
10
373.99999961256981
20
279.99999706447124
10
373.99999961256981
20
280.29999706447131
10
365.99999949336052
20
280.29999706447131
10
365.99999949336052
20
279.99999706447124
0
LINE
5
125
100
AcDbEntity
8
0
100
AcDbLine
10
373.99999961256981
20
190.2999970644712
30
0
11
373.99999961256981
21
189.99999706447119
31
0
0
LWPOLYLINE
5
126
100
AcDbEntity
8
0
100
AcDbPolyline
90
4
70
1
43
0.0
10
373.99999961256981
20
169.99999706447119
10
373.99999961256981
20
170.2999970644712
10
365.99999949336052
20
170.2999970644712
10
365.99999949336052
20
169.99999706447119
0
LWPOLYLINE
5
127
100
AcDbEntity
8
0
100
AcDbPolyline
90
4
70
1
43
0.0
10
365.99999949336052
20
179.99999706447119
10
365.99999949336052
20
180.2999970644712
10
373.99999961256981
20
180.2999970644712
10
373.99999961256981
20
179.99999706447119
0
LWPOLYLINE
5
128
100
AcDbEntity
8
0
100
AcDbPolyline
90
4
70
1
43
0.0
10
373.99999961256981
20
209.99999706447119
10
373.99999961256981
20
210.2999970644712
10
365.99999949336052
20
210.2999970644712
10
365.99999949336052
20
209.99999706447119
0
LWPOLYLINE
5
129
100
AcDbEntity
8
0
100
AcDbPolyline
90
4
70
1
43
0.0
10
373.99999961256981
20
240.29999706447128
10
365.99999949336052
20
240.29999706447128
10
365.99999949336052
20
239.99999706447127
10
373.99999961256981
20
239.99999706447127
0
LWPOLYLINE
5
130
100
AcDbEntity
8
0
100
AcDbPolyline
90
4
70
1
43
0.0
10
365.99999949336052
20
249.99999706447127
10
373.99999961256981
20
249.99999706447127
10
373.99999961256981
20
250.29999706447128
10
365.99999949336052
20
250.29999706447128
0
LINE
5
131
100
AcDbEntity
8
0
100
AcDbLine
10
383.50000087358063
20
6.8853571071357047
30
0
11
400.00000596046448
21
6.8853571071357047
31
0
0
LINE
5
132
100
AcDbEntity
8
0
100
AcDbLine
10
376.50000087358057
20
6.8853571071357047
30
0
11
360.00000536441803
21
6.8853571071357047
31
0
0
CIRCLE
5
133
100
AcDbEntity
8
0
100
AcDbCircle
10
385.00000573694706
20
290.00000432133675
30
0
40
2.0000000298023224
210
0
220
0
230
1
0
CIRCLE
5
134
100
AcDbEntity
8
0
100
AcDbCircle
10
414.99999426305294
20
290.00000432133675
30
0
40
2.0000000298023224
210
0
220
0
230
1
0
ARC
5
135
100
AcDbEntity
8
0
100
AcDbCircle
10
415.00000000000006
20
292.00000000000011
30
0
40
4.9999999999999289
210
-0
220
0
230
1
100
AcDbArc
50
0
51
90
0
ARC
5
136
100
AcDbEntity
8
0
100
AcDbCircle
10
384.99999999999994
20
292.00000000000011
30
0
40
4.9999999999999289
210
0
220
-0
230
1
100
AcDbArc
50
89.999999999999346
51
180
0
LINE
5
137
100
AcDbEntity
8
0
100
AcDbLine
10
365
20
297.00000009245343
30
0
11
374.99999990754657
21
297.0000002773603
31
0
0
ARC
5
138
100
AcDbEntity
8
0
100
AcDbCircle
10
375.00000000000006
20
292.0000002773603
30
0
40
4.9999999999999289
210
-0
220
0
230
1
100
AcDbArc
50
0
51
90.000001059438958
0
ARC
5
139
100
AcDbEntity
8
0
100
AcDbCircle
10
365.00000009245343
20
292.00000009245343
30
0
40
5.0000000000000009
210
0
220
0
230
1
100
AcDbArc
50
90.000001059438304
51
180.00000085377366
0
ARC
5
140
100
AcDbEntity
8
0
100
AcDbCircle
10
405.00000000000006
20
5.0000000000000755
30
0
40
5.0000000000000711
210
0
220
0
230
1
100
AcDbArc
50
180
51
269.99999999999932
0
LINE
5
141
100
AcDbEntity
8
0
100
AcDbLine
10
420
20
292.00000000000006
30
0
11
420
21
4.9999999999999645
31
0
0
ARC
5
142
100
AcDbEntity
8
0
100
AcDbCircle
10
415.00000000000006
20
4.9999999999999281
30
0
40
4.9999999999999281
210
0
220
0
230
1
100
AcDbArc
50
-90
51
0
0
LINE
5
143
100
AcDbEntity
8
0
100
AcDbLine
10
382.00000087358063
20
11.000000163912773
30
0
11
379.47911559568718
21
8.828933263499259
31
0
0
LINE
5
144
100
AcDbEntity
8
0
100
AcDbLine
10
382.00000087358063
20
11.000000163912773
30
0
11
379.47911559568718
21
13.171067064326287
31
0
0
ARC
5
145
100
AcDbEntity
8
0
100
AcDbCircle
10
378.50000087358063
20
12.034190127066422
30
0
40
1.5003848871270156
210
0
220
-0
230
1
100
AcDbArc
50
49.263918500419315
51
223.57338767493127
0
ARC
5
146
100
AcDbEntity
8
0
100
AcDbCircle
10
378.50000087358063
20
9.965810200759126
30
0
40
1.5003848871269865
210
0
220
0
230
1
100
AcDbArc
50
136.42661232506879
51
310.73608149958062
0
LWPOLYLINE
5
147
100
AcDbEntity
8
0
100
AcDbPolyline
90
3
70
1
43
0.0
10
368.00000296533108
20
143.00000013411045
10
371.00000301003456
20
144.50000015646219
10
371.00000301003456
20
141.50000011175871
0
LINE
5
148
100
AcDbEntity
8
0
100
AcDbLine
10
371.00000301003456
20
144.50000015646219
30
0
11
371.00000301003456
21
141.50000011175871
31
0
0
LWPOLYLINE
5
149
100
AcDbEntity
8
0
100
AcDbPolyline
90
4
70
1
43
0.0
10
388.999999538064
20
142.25430908038499
10
388.999999538064
20
144.25430911018731
10
390.99999956786633
20
144.25430911018731
10
390.99999956786633
20
142.25430908038499
0
LINE
5
150
100
AcDbEntity
8
0
100
AcDbLine
10
377.00000561773777
20
174.00000259280205
30
0
11
375.50000559538603
21
175.00000260770321
31
0
0
LINE
5
151
100
AcDbEntity
8
0
100
AcDbLine
10
375.50000559538603
20
175.00000260770321
30
0
11
379.00000564754009
21
175.00000260770321
31
0
0
LINE
5
152
100
AcDbEntity
8
0
100
AcDbLine
10
376.79255387224873
20
184.09852541649585
30
0
11
375.71588713580161
21
185.10178305727604
31
0
0
LINE
5
153
100
AcDbEntity
8
0
100
AcDbLine
10
375.71588713580161
20
185.10178305727604
30
0
11
376.79255387224873
21
186.25723028663398
31
0
0
LINE
5
154
100
AcDbEntity
8
0
100
AcDbLine
10
376.79255387224873
20
186.25723028663398
30
0
11
379.10811664328048
21
184.09954679544543
31
0
0
LINE
5
155
100
AcDbEntity
8
0
100
AcDbLine
10
379.10811664328048
20
184.09954679544543
30
0
11
378.77459945525345
21
186.54549527205728
31
0
0
LINE
5
156
100
AcDbEntity
8
0
100
AcDbLine
10
376.66236284108351
20
193.0837693624791
30
0
11
375.65923244273586
21
194.44516061737954
31
0
0
LINE
5
157
100
AcDbEntity
8
0
100
AcDbLine
10
375.65923244273586
20
194.44516061737954
30
0
11
376.66236284108351
21
195.18430933195148
31
0
0
LINE
5
158
100
AcDbEntity
8
0
100
AcDbLine
10
376.66236284108351
20
195.18430933195148
30
0
11
377.55801498246541
21
194.44516061737954
31
0
0
LINE
5
159
100
AcDbEntity
8
0
100
AcDbLine
10
377.55801498246541
20
194.44516061737954
30
0
11
378.45772712200096
21
195.53537303135761
31
0
0
LINE
5
160
100
AcDbEntity
8
0
100
AcDbLine
10
378.45772712200096
20
195.53537303135761
30
0
11
378.99105840867634
21
194.44516061737954
31
0
0
LINE
5
161
100
AcDbEntity
8
0
100
AcDbLine
10
378.99105840867634
20
194.44516061737954
30
0
11
378.45772712200096
21
193.26289979075545
31
0
0
LINE
5
162
100
AcDbEntity
8
0
100
AcDbLine
10
379.18915888600839
20
206.45023519186583
30
0
11
376.49343980826956
21
206.45023519186583
31
0
0
LINE
5
163
100
AcDbEntity
8
0
100
AcDbLine
10
376.56256081026288
20
204.82589164502321
30
0
11
377.73761784414899
21
204.82589164502321
31
0
0
LINE
5
164
100
AcDbEntity
8
0
100
AcDbLine
10
377.73761784414899
20
204.82589164502321
30
0
11
377.73761784414899
21
207.00000308454037
31
0
0
LINE
5
165
100
AcDbEntity
8
0
100
AcDbLine
10
376.45887930727292
20
216.71470398787125
30
0
11
376.45887930727292
21
215.00000320374966
31
0
0
LINE
5
166
100
AcDbEntity
8
0
100
AcDbLine
10
376.45887930727292
20
215.00000320374966
30
0
11
377.32289183218927
21
215.00000320374966
31
0
0
LINE
5
167
100
AcDbEntity
8
0
100
AcDbLine
10
377.32289183218927
20
215.00000320374966
30
0
11
377.32289183218927
21
216.36909897790474
31
0
0
LINE
5
168
100
AcDbEntity
8
0
100
AcDbLine
10
377.32289183218927
20
216.36909897790474
30
0
11
377.84129934713894
21
216.71470398787125
31
0
0
LINE
5
169
100
AcDbEntity
8
0
100
AcDbLine
10
377.84129934713894
20
216.71470398787125
30
0
11
378.56706986806864
21
216.36909897790474
31
0
0
LINE
5
170
100
AcDbEntity
8
0
100
AcDbLine
10
378.56706986806864
20
216.36909897790474
30
0
11
378.20418460760379
21
215.2631629460119
31
0
0
LINE
5
171
100
AcDbEntity
8
0
100
AcDbLine
10
376.50000561028719
20
225.50000336021185
30
0
11
377.20149964254
21
224.34834515872737
31
0
0
LINE
5
172
100
AcDbEntity
8
0
100
AcDbLine
10
377.20149964254
20
224.34834515872737
30
0
11
378.00000563263893
21
224.34834515872737
31
0
0
LINE
5
173
100
AcDbEntity
8
0
100
AcDbLine
10
378.00000563263893
20
224.34834515872737
30
0
11
379.13764662287258
21
224.92417425946962
31
0
0
LINE
5
174
100
AcDbEntity
8
0
100
AcDbLine
10
379.13764662287258
20
224.92417425946962
30
0
11
378.56882612775576
21
226.28449213905995
31
0
0
LINE
5
175
100
AcDbEntity
8
0
100
AcDbLine
10
378.56882612775576
20
226.28449213905995
30
0
11
378.00000563263893
21
226.28449213905995
31
0
0
LINE
5
176
100
AcDbEntity
8
0
100
AcDbLine
10
378.00000563263893
20
226.28449213905995
30
0
11
378.00000563263893
21
225.00000335276127
31
0
0
LINE
5
177
100
AcDbEntity
8
0
100
AcDbLine
10
376.50000561028719
20
234.5000034943223
30
0
11
376.50000561028719
21
236.50000352412462
31
0
0
LINE
5
178
100
AcDbEntity
8
0
100
AcDbLine
10
376.50000561028719
20
236.50000352412462
30
0
11
379.00000564754009
21
235.00000350177288
31
0
0
LINE
5
179
100
AcDbEntity
8
0
100
AcDbLine
10
377.50000562518835
20
245.00000365078449
30
0
11
376.00000560283661
21
246.00000366568565
31
0
0
LINE
5
180
100
AcDbEntity
8
0
100
AcDbLine
10
376.00000560283661
20
246.00000366568565
30
0
11
376.00000560283661
21
244.00000363588333
31
0
0
LINE
5
181
100
AcDbEntity
8
0
100
AcDbLine
10
376.00000560283661
20
244.00000363588333
30
0
11
377.00000561773777
21
244.50000364333391
31
0
0
LINE
5
182
100
AcDbEntity
8
0
100
AcDbLine
10
377.00000561773777
20
244.50000364333391
30
0
11
379.00000564754009
21
244.00000363588333
31
0
0
LINE
5
183
100
AcDbEntity
8
0
100
AcDbLine
10
379.00000564754009
20
244.00000363588333
30
0
11
378.50000564008951
21
246.50000367313623
31
0
0
LINE
5
184
100
AcDbEntity
8
0
100
AcDbLine
10
378.50000564008951
20
246.50000367313623
30
0
11
377.79545724006738
21
244.80303590753181
31
0
0
LINE
5
185
100
AcDbEntity
8
0
100
AcDbLine
10
379.00000564754009
20
255.0000037997961
30
0
11
378.00000563263893
21
256.50000382214785
31
0
0
LINE
5
186
100
AcDbEntity
8
0
100
AcDbLine
10
378.00000563263893
20
256.50000382214785
30
0
11
376.50000561028719
21
257.00000382959843
31
0
0
LINE
5
187
100
AcDbEntity
8
0
100
AcDbLine
10
376.50000561028719
20
257.00000382959843
30
0
11
375.54116691216649
21
256.36077803085129
31
0
0
LINE
5
188
100
AcDbEntity
8
0
100
AcDbLine
10
375.54116691216649
20
256.36077803085129
30
0
11
375.54116691216649
21
255.0000037997961
31
0
0
LINE
5
189
100
AcDbEntity
8
0
100
AcDbLine
10
375.54116691216649
20
255.0000037997961
30
0
11
376.50000561028719
21
254.68039090042254
31
0
0
LINE
5
190
100
AcDbEntity
8
0
100
AcDbLine
10
376.50000561028719
20
254.68039090042254
30
0
11
377.20145758763852
21
255.75000381097198
31
0
0
LINE
5
191
100
AcDbEntity
8
0
100
AcDbLine
10
377.20145758763852
20
255.75000381097198
30
0
11
376.85073159896285
21
256.36077803085129
31
0
0
LINE
5
192
100
AcDbEntity
8
0
100
AcDbLine
10
377.00000561773777
20
263.00000391900539
30
0
11
376.00000560283661
21
264.00000393390656
31
0
0
LINE
5
193
100
AcDbEntity
8
0
100
AcDbLine
10
376.00000560283661
20
264.00000393390656
30
0
11
378.44283418837131
21
264.00000393390656
31
0
0
LINE
5
194
100
AcDbEntity
8
0
100
AcDbLine
10
376.49703027197381
20
265.41545532860403
30
0
11
377.56722242599244
21
264.92900434950462
31
0
0
LINE
5
195
100
AcDbEntity
8
0
100
AcDbLine
10
377.56722242599244
20
264.92900434950462
30
0
11
379.02657536329053
21
265.41545532860403
31
0
0
LINE
5
196
100
AcDbEntity
8
0
100
AcDbLine
10
379.02657536329053
20
265.41545532860403
30
0
11
378.29689889464146
21
267.02074355963191
31
0
0
LINE
5
197
100
AcDbEntity
8
0
100
AcDbLine
10
378.29689889464146
20
267.02074355963191
30
0
11
377.03212634898313
21
266.44584694796902
31
0
0
LINE
5
198
100
AcDbEntity
8
0
100
AcDbLine
10
377.03276469813312
20
272.74480686766947
30
0
11
375.71521237431887
21
274.16370937023868
31
0
0
LINE
5
199
100
AcDbEntity
8
0
100
AcDbLine
10
375.71521237431887
20
274.16370937023868
30
0
11
378.50000564008951
21
274.00000408291817
31
0
0
LINE
5
200
100
AcDbEntity
8
0
100
AcDbLine
10
377.00000561773777
20
275.50000410526991
30
0
11
376.00000560283661
21
276.50000412017107
31
0
0
LINE
5
201
100
AcDbEntity
8
0
100
AcDbLine
10
376.00000560283661
20
276.50000412017107
30
0
11
378.50000564008951
21
276.50000412017107
31
0
0
LINE
5
202
100
AcDbEntity
8
0
100
AcDbLine
10
317.55801498246541
20
194.44516061737954
30
0
11
318.45772712200096
21
195.53537303135761
31
0
0
LINE
5
203
100
AcDbEntity
8
0
100
AcDbLine
10
316.79255387224873
20
186.25723028663398
30
0
11
319.10811664328048
21
184.09954679544543
31
0
0
LINE
5
204
100
AcDbEntity
8
0
100
AcDbLine
10
315.65923244273586
20
194.44516061737954
30
0
11
316.66236284108351
21
195.18430933195148
31
0
0
LINE
5
205
100
AcDbEntity
8
0
100
AcDbLine
10
316.79255387224873
20
184.09852541649585
30
0
11
315.71588713580161
21
185.10178305727604
31
0
0
LINE
5
206
100
AcDbEntity
8
0
100
AcDbLine
10
318.99105840867634
20
194.44516061737954
30
0
11
318.45772712200096
21
193.26289979075545
31
0
0
LWPOLYLINE
5
207
100
AcDbEntity
8
0
100
AcDbPolyline
90
3
70
1
43
0.0
10
308.00000296533108
20
143.00000013411045
10
311.00000301003456
20
144.50000015646219
10
311.00000301003456
20
141.50000011175871
0
LWPOLYLINE
5
208
100
AcDbEntity
8
0
100
AcDbPolyline
90
4
70
1
43
0.0
10
328.999999538064
20
144.25430911018731
10
330.99999956786633
20
144.25430911018731
10
330.99999956786633
20
142.25430908038499
10
328.999999538064
20
142.25430908038499
0
CIRCLE
5
209
100
AcDbEntity
8
0
100
AcDbCircle
10
325.00000573694706
20
290.00000432133675
30
0
40
2.0000000298023224
210
0
220
0
230
1
0
LINE
5
210
100
AcDbEntity
8
0
100
AcDbLine
10
316.49703027197381
20
265.41545532860403
30
0
11
317.56722242599244
21
264.92900434950462
31
0
0
ARC
5
211
100
AcDbEntity
8
0
100
AcDbCircle
10
355.00000000000006
20
292.00000000000011
30
0
40
4.9999999999999289
210
0
220
0
230
1
100
AcDbArc
50
0
51
90
0
LINE
5
212
100
AcDbEntity
8
0
100
AcDbLine
10
305
20
297.00000009245343
30
0
11
314.99999990754657
21
297.0000002773603
31
0
0
LINE
5
213
100
AcDbEntity
8
0
100
AcDbLine
10
315.54116691216649
20
256.36077803085129
30
0
11
315.54116691216649
21
255.0000037997961
31
0
0
CIRCLE
5
214
100
AcDbEntity
8
0
100
AcDbCircle
10
354.99999426305294
20
290.00000432133675
30
0
40
2.0000000298023224
210
0
220
0
230
1
0
LWPOLYLINE
5
215
100
AcDbEntity
8
0
100
AcDbPolyline
90
4
70
1
43
0.0
10
305.99999949336052
20
279.99999706447124
10
313.99999961256981
20
279.99999706447124
10
313.99999961256981
20
280.29999706447131
10
305.99999949336052
20
280.29999706447131
0
LWPOLYLINE
5
216
100
AcDbEntity
8
0
100
AcDbPolyline
90
4
70
1
43
0.0
10
313.99999961256981
20
270.29999706447131
10
305.99999949336052
20
270.29999706447131
10
305.99999949336052
20
269.99999706447124
10
313.99999961256981
20
269.99999706447124
0
ARC
5
217
100
AcDbEntity
8
0
100
AcDbCircle
10
324.99999999999994
20
292.00000000000011
30
0
40
4.9999999999999289
210
0
220
-0
230
1
100
AcDbArc
50
89.999999999999346
51
180
0
LWPOLYLINE
5
218
100
AcDbEntity
8
0
100
AcDbPolyline
90
4
70
1
43
0.0
10
313.99999961256981
20
259.99999706447124
10
313.99999961256981
20
260.29999706447131
10
305.99999949336052
20
260.29999706447131
10
305.99999949336052
20
259.99999706447124
0
LINE
5
219
100
AcDbEntity
8
0
100
AcDbLine
10
318.50000564008951
20
246.50000367313623
30
0
11
317.79545724006738
21
244.80303590753181
31
0
0
LINE
5
220
100
AcDbEntity
8
0
100
AcDbLine
10
316.00000560283661
20
264.00000393390656
30
0
11
318.44283418837131
21
264.00000393390656
31
0
0
LWPOLYLINE
5
221
100
AcDbEntity
8
0
100
AcDbPolyline
90
4
70
1
43
0.0
10
305.99999949336052
20
239.99999706447127
10
313.99999961256981
20
239.99999706447127
10
313.99999961256981
20
240.29999706447128
10
305.99999949336052
20
240.29999706447128
0
LINE
5
222
100
AcDbEntity
8
0
100
AcDbLine
10
317.56722242599244
20
264.92900434950462
30
0
11
319.02657536329053
21
265.41545532860403
31
0
0
LINE
5
223
100
AcDbEntity
8
0
100
AcDbLine
10
317.03276469813312
20
272.74480686766947
30
0
11
315.71521237431887
21
274.16370937023868
31
0
0
LWPOLYLINE
5
224
100
AcDbEntity
8
0
100
AcDbPolyline
90
4
70
1
43
0.0
10
305.99999949336052
20
199.99999706447119
10
305.99999949336052
20
200.2999970644712
10
313.99999961256981
20
200.2999970644712
10
313.99999961256981
20
199.99999706447119
0
LINE
5
225
100
AcDbEntity
8
0
100
AcDbLine
10
316.50000561028719
20
254.68039090042254
30
0
11
317.20145758763852
21
255.75000381097198
31
0
0
LINE
5
226
100
AcDbEntity
8
0
100
AcDbLine
10
317.00000561773777
20
263.00000391900539
30
0
11
316.00000560283661
21
264.00000393390656
31
0
0
LWPOLYLINE
5
227
100
AcDbEntity
8
0
100
AcDbPolyline
90
4
70
1
43
0.0
10
305.99999949336052
20
219.99999706447127
10
305.99999949336052
20
220.29999706447128
10
313.99999961256981
20
220.29999706447128
10
313.99999961256981
20
219.99999706447127
0
LINE
5
228
100
AcDbEntity
8
0
100
AcDbLine
10
316.00000560283661
20
244.00000363588333
30
0
11
317.00000561773777
21
244.50000364333391
31
0
0
LINE
5
229
100
AcDbEntity
8
0
100
AcDbLine
10
325
20
297
30
0
11
355.00000000000006
21
297
31
0
0
LINE
5
230
100
AcDbEntity
8
0
100
AcDbLine
10
319.00000564754009
20
244.00000363588333
30
0
11
318.50000564008951
21
246.50000367313623
31
0
0
LINE
5
231
100
AcDbEntity
8
0
100
AcDbLine
10
316.50000561028719
20
234.5000034943223
30
0
11
316.50000561028719
21
236.50000352412462
31
0
0
LINE
5
232
100
AcDbEntity
8
0
100
AcDbLine
10
317.50000562518835
20
245.00000365078449
30
0
11
316.00000560283661
21
246.00000366568565
31
0
0
LWPOLYLINE
5
233
100
AcDbEntity
8
0
100
AcDbPolyline
90
4
70
1
43
0.0
10
305.99999949336052
20
249.99999706447127
10
313.99999961256981
20
249.99999706447127
10
313.99999961256981
20
250.29999706447128
10
305.99999949336052
20
250.29999706447128
0
LINE
5
234
100
AcDbEntity
8
0
100
AcDbLine
10
316.00000560283661
20
276.50000412017107
30
0
11
318.50000564008951
21
276.50000412017107
31
0
0
LINE
5
235
100
AcDbEntity
8
0
100
AcDbLine
10
318.29689889464146
20
267.02074355963191
30
0
11
317.03212634898313
21
266.44584694796902
31
0
0
ARC
5
236
100
AcDbEntity
8
0
100
AcDbCircle
10
315.00000000000006
20
292.0000002773603
30
0
40
4.9999999999999289
210
0
220
0
230
1
100
AcDbArc
50
0
51
90.000001059438958
0
LINE
5
237
100
AcDbEntity
8
0
100
AcDbLine
10
317.20145758763852
20
255.75000381097198
30
0
11
316.85073159896285
21
256.36077803085129
31
0
0
LINE
5
238
100
AcDbEntity
8
0
100
AcDbLine
10
315.71521237431887
20
274.16370937023868
30
0
11
318.50000564008951
21
274.00000408291817
31
0
0
LINE
5
239
100
AcDbEntity
8
0
100
AcDbLine
10
317.00000561773777
20
244.50000364333391
30
0
11
319.00000564754009
21
244.00000363588333
31
0
0
LINE
5
240
100
AcDbEntity
8
0
100
AcDbLine
10
315.54116691216649
20
255.0000037997961
30
0
11
316.50000561028719
21
254.68039090042254
31
0
0
ARC
5
241
100
AcDbEntity
8
0
100
AcDbCircle
10
305.00000009245343
20
292.00000009245343
30
0
40
5.0000000000000009
210
0
220
0
230
1
100
AcDbArc
50
90.000001059438304
51
180.00000085377366
0
LINE
5
242
100
AcDbEntity
8
0
100
AcDbLine
10
316.50000561028719
20
257.00000382959843
30
0
11
315.54116691216649
21
256.36077803085129
31
0
0
LINE
5
243
100
AcDbEntity
8
0
100
AcDbLine
10
316.00000560283661
20
246.00000366568565
30
0
11
316.00000560283661
21
244.00000363588333
31
0
0
LINE
5
244
100
AcDbEntity
8
0
100
AcDbLine
10
316.50000561028719
20
236.50000352412462
30
0
11
319.00000564754009
21
235.00000350177288
31
0
0
LINE
5
245
100
AcDbEntity
8
0
100
AcDbLine
10
319.02657536329053
20
265.41545532860403
30
0
11
318.29689889464146
21
267.02074355963191
31
0
0
LINE
5
246
100
AcDbEntity
8
0
100
AcDbLine
10
317.00000561773777
20
275.50000410526991
30
0
11
316.00000560283661
21
276.50000412017107
31
0
0
LINE
5
247
100
AcDbEntity
8
0
100
AcDbLine
10
318.00000563263893
20
256.50000382214785
30
0
11
316.50000561028719
21
257.00000382959843
31
0
0
ARC
5
248
100
AcDbEntity
8
0
100
AcDbCircle
10
355.00000000000006
20
4.9999999999999281
30
0
40
4.9999999999999281
210
0
220
0
230
1
100
AcDbArc
50
-90
51
0
0
LINE
5
249
100
AcDbEntity
8
0
100
AcDbLine
10
353.49999912641943
20
29.699999999999989
30
0
11
354.99999912641943
21
29.699999999999989
31
0
0
ARC
5
250
100
AcDbEntity
8
0
100
AcDbCircle
10
318.50000087358063
20
9.965810200759126
30
0
40
1.5003848871269865
210
0
220
0
230
1
100
AcDbArc
50
136.42661232506879
51
310.73608149958062
0
LINE
5
251
100
AcDbEntity
8
0
100
AcDbLine
10
322.00000087358063
20
11.000000163912773
30
0
11
319.47911559568718
21
8.828933263499259
31
0
0
LINE
5
252
100
AcDbEntity
8
0
100
AcDbLine
10
323.50000087358063
20
6.8853571071357047
30
0
11
340.00000596046448
21
6.8853571071357047
31
0
0
LINE
5
253
100
AcDbEntity
8
0
100
AcDbLine
10
353.49999912641943
20
29.699999999999989
30
0
11
353.49999912641943
21
33.270714214271422
31
0
0
LINE
5
254
100
AcDbEntity
8
0
100
AcDbLine
10
323.50000087358063
20
5.0999999999999881
30
0
11
325.00000087358057
21
5.0999999999999881
31
0
0
LINE
5
255
100
AcDbEntity
8
0
100
AcDbLine
10
346.49999912641937
20
9.6999999999999886
30
0
11
344.99999912641943
21
9.6999999999999886
31
0
0
ARC
5
256
100
AcDbEntity
8
0
100
AcDbCircle
10
318.50000087358063
20
12.034190127066422
30
0
40
1.5003848871270156
210
0
220
-0
230
1
100
AcDbArc
50
49.263918500419315
51
223.57338767493127
0
LINE
5
257
100
AcDbEntity
8
0
100
AcDbLine
10
346.49999912641937
20
29.699999999999989
30
0
11
346.49999912641937
21
33.270714214271422
31
0
0
LINE
5
258
100
AcDbEntity
8
0
100
AcDbLine
10
353.49999912641943
20
9.6999999999999886
30
0
11
353.49999912641943
21
13.270714214271422
31
0
0
ARC
5
259
100
AcDbEntity
8
0
100
AcDbCircle
10
345.00000000000006
20
5.0000000000000755
30
0
40
5.0000000000000666
210
0
220
0
230
1
100
AcDbArc
50
178.85400800161241
51
269.99999999999932
0
ARC
5
260
100
AcDbEntity
8
0
100
AcDbCircle
10
320.00000087358057
20
5.0999999999999881
30
0
40
5
210
0
220
0
230
1
100
AcDbArc
50
-180
51
0
0
LINE
5
261
100
AcDbEntity
8
0
100
AcDbLine
10
346.49999912641937
20
9.6999999999999886
30
0
11
346.49999912641937
21
13.270714214271422
31
0
0
LINE
5
262
100
AcDbEntity
8
0
100
AcDbLine
10
316.50000087358057
20
5.0999999999999881
30
0
11
316.50000087358057
21
6.8853571071357047
31
0
0
LINE
5
263
100
AcDbEntity
8
0
100
AcDbLine
10
316.50000087358057
20
5.0999999999999881
30
0
11
315.00000087358057
21
5.0999999999999881
31
0
0
LINE
5
264
100
AcDbEntity
8
0
100
AcDbLine
10
353.49999912641943
20
9.6999999999999886
30
0
11
354.99999912641943
21
9.6999999999999886
31
0
0
LINE
5
265
100
AcDbEntity
8
0
100
AcDbLine
10
346.49999912641937
20
29.699999999999989
30
0
11
344.99999912641943
21
29.699999999999989
31
0
0
ARC
5
266
100
AcDbEntity
8
0
100
AcDbCircle
10
349.99999912641943
20
29.699999999999989
30
0
40
5
210
0
220
0
230
1
100
AcDbArc
50
-180
51
0
0
LINE
5
267
100
AcDbEntity
8
0
100
AcDbLine
10
323.50000087358063
20
5.0999999999999881
30
0
11
323.50000087358063
21
6.8853571071357047
31
0
0
LINE
5
268
100
AcDbEntity
8
0
100
AcDbLine
10
316.50000087358057
20
6.8853571071357047
30
0
11
300.00000536441803
21
6.8853571071357047
31
0
0
LINE
5
269
100
AcDbEntity
8
0
100
AcDbLine
10
355.00000000000006
20
0
30
0
11
345
21
5.5511151231257827e-15
31
0
0
LINE
5
270
100
AcDbEntity
8
0
100
AcDbLine
10
322.00000087358063
20
11.000000163912773
30
0
11
319.47911559568718
21
13.171067064326287
31
0
0
ARC
5
271
100
AcDbEntity
8
0
100
AcDbCircle
10
349.99999912641943
20
9.6999999999999886
30
0
40
5
210
0
220
0
230
1
100
AcDbArc
50
-180
51
0
0
LINE
5
272
100
AcDbEntity
8
0
100
AcDbLine
10
316.45887930727292
20
216.71470398787125
30
0
11
316.45887930727292
21
215.00000320374966
31
0
0
LWPOLYLINE
5
273
100
AcDbEntity
8
0
100
AcDbPolyline
90
4
70
1
43
0.0
10
313.99999961256981
20
229.99999706447127
10
313.99999961256981
20
230.29999706447128
10
305.99999949336052
20
230.29999706447128
10
305.99999949336052
20
229.99999706447127
0
LINE
5
274
100
AcDbEntity
8
0
100
AcDbLine
10
318.56706986806864
20
216.36909897790474
30
0
11
318.20418460760379
21
215.2631629460119
31
0
0
LWPOLYLINE
5
275
100
AcDbEntity
8
0
100
AcDbPolyline
90
4
70
1
43
0.0
10
305.99999949336052
20
209.99999706447119
10
313.99999961256981
20
209.99999706447119
10
313.99999961256981
20
210.2999970644712
10
305.99999949336052
20
210.2999970644712
0
LINE
5
276
100
AcDbEntity
8
0
100
AcDbLine
10
319.13764662287258
20
224.92417425946962
30
0
11
318.56882612775576
21
226.28449213905995
31
0
0
LINE
5
277
100
AcDbEntity
8
0
100
AcDbLine
10
317.73761784414899
20
204.82589164502321
30
0
11
317.73761784414899
21
207.00000308454037
31
0
0
LINE
5
278
100
AcDbEntity
8
0
100
AcDbLine
10
317.20149964254
20
224.34834515872737
30
0
11
318.00000563263893
21
224.34834515872737
31
0
0
LINE
5
279
100
AcDbEntity
8
0
100
AcDbLine
10
317.32289183218927
20
215.00000320374966
30
0
11
317.32289183218927
21
216.36909897790474
31
0
0
LINE
5
280
100
AcDbEntity
8
0
100
AcDbLine
10
319.18915888600839
20
206.45023519186583
30
0
11
316.49343980826956
21
206.45023519186583
31
0
0
LINE
5
281
100
AcDbEntity
8
0
100
AcDbLine
10
311.00000301003456
20
144.50000015646219
30
0
11
311.00000301003456
21
141.50000011175871
31
0
0
LINE
5
282
100
AcDbEntity
8
0
100
AcDbLine
10
319.00000564754009
20
255.0000037997961
30
0
11
318.00000563263893
21
256.50000382214785
31
0
0
LINE
5
283
100
AcDbEntity
8
0
100
AcDbLine
10
313.99999961256981
20
190.2999970644712
30
0
11
313.99999961256981
21
189.99999706447119
31
0
0
LWPOLYLINE
5
284
100
AcDbEntity
8
0
100
AcDbPolyline
90
4
70
1
43
0.0
10
313.99999961256981
20
169.99999706447119
10
313.99999961256981
20
170.2999970644712
10
305.99999949336052
20
170.2999970644712
10
305.99999949336052
20
169.99999706447119
0
LWPOLYLINE
5
285
100
AcDbEntity
8
0
100
AcDbPolyline
90
4
70
1
43
0.0
10
315
20
189.99999706447119
10
315
20
190.2999970644712
10
305.99999949336052
20
190.2999970644712
10
305.99999949336052
20
189.99999706447119
0
LINE
5
286
100
AcDbEntity
8
0
100
AcDbLine
10
316.66236284108351
20
195.18430933195148
30
0
11
317.55801498246541
21
194.44516061737954
31
0
0
LINE
5
287
100
AcDbEntity
8
0
100
AcDbLine
10
317.00000561773777
20
174.00000259280205
30
0
11
315.50000559538603
21
175.00000260770321
31
0
0
LINE
5
288
100
AcDbEntity
8
0
100
AcDbLine
10
318.45772712200096
20
195.53537303135761
30
0
11
318.99105840867634
21
194.44516061737954
31
0
0
LWPOLYLINE
5
289
100
AcDbEntity
8
0
100
AcDbPolyline
90
4
70
1
43
0.0
10
305.99999949336052
20
179.99999706447119
10
313.99999961256981
20
179.99999706447119
10
313.99999961256981
20
180.2999970644712
10
305.99999949336052
20
180.2999970644712
0
LINE
5
290
100
AcDbEntity
8
0
100
AcDbLine
10
315.71588713580161
20
185.10178305727604
30
0
11
316.79255387224873
21
186.25723028663398
31
0
0
LINE
5
291
100
AcDbEntity
8
0
100
AcDbLine
10
315.50000559538603
20
175.00000260770321
30
0
11
319.00000564754009
21
175.00000260770321
31
0
0
LINE
5
292
100
AcDbEntity
8
0
100
AcDbLine
10
319.10811664328048
20
184.09954679544543
30
0
11
318.77459945525345
21
186.54549527205728
31
0
0
LINE
5
293
100
AcDbEntity
8
0
100
AcDbLine
10
316.66236284108351
20
193.0837693624791
30
0
11
315.65923244273586
21
194.44516061737954
31
0
0
LINE
5
294
100
AcDbEntity
8
0
100
AcDbLine
10
318.00000563263893
20
226.28449213905995
30
0
11
318.00000563263893
21
225.00000335276127
31
0
0
LINE
5
295
100
AcDbEntity
8
0
100
AcDbLine
10
318.00000563263893
20
224.34834515872737
30
0
11
319.13764662287258
21
224.92417425946962
31
0
0
LINE
5
296
100
AcDbEntity
8
0
100
AcDbLine
10
318.56882612775576
20
226.28449213905995
30
0
11
318.00000563263893
21
226.28449213905995
31
0
0
LINE
5
297
100
AcDbEntity
8
0
100
AcDbLine
10
316.50000561028719
20
225.50000336021185
30
0
11
317.20149964254
21
224.34834515872737
31
0
0
LINE
5
298
100
AcDbEntity
8
0
100
AcDbLine
10
316.56256081026288
20
204.82589164502321
30
0
11
317.73761784414899
21
204.82589164502321
31
0
0
LINE
5
299
100
AcDbEntity
8
0
100
AcDbLine
10
316.45887930727292
20
215.00000320374966
30
0
11
317.32289183218927
21
215.00000320374966
31
0
0
LINE
5
300
100
AcDbEntity
8
0
100
AcDbLine
10
317.32289183218927
20
216.36909897790474
30
0
11
317.84129934713894
21
216.71470398787125
31
0
0
LINE
5
301
100
AcDbEntity
8
0
100
AcDbLine
10
317.84129934713894
20
216.71470398787125
30
0
11
318.56706986806864
21
216.36909897790474
31
0
0
LINE
5
302
100
AcDbEntity
8
0
100
AcDbLine
10
257.55801498246541
20
194.44516061737954
30
0
11
258.45772712200096
21
195.53537303135761
31
0
0
LINE
5
303
100
AcDbEntity
8
0
100
AcDbLine
10
256.79255387224873
20
186.25723028663398
30
0
11
259.10811664328048
21
184.09954679544543
31
0
0
LINE
5
304
100
AcDbEntity
8
0
100
AcDbLine
10
255.65923244273586
20
194.44516061737954
30
0
11
256.66236284108351
21
195.18430933195148
31
0
0
LINE
5
305
100
AcDbEntity
8
0
100
AcDbLine
10
256.79255387224873
20
184.09852541649585
30
0
11
255.71588713580161
21
185.10178305727604
31
0
0
LINE
5
306
100
AcDbEntity
8
0
100
AcDbLine
10
258.99105840867634
20
194.44516061737954
30
0
11
258.45772712200096
21
193.26289979075545
31
0
0
LWPOLYLINE
5
307
100
AcDbEntity
8
0
100
AcDbPolyline
90
3
70
1
43
0.0
10
248.00000296533108
20
143.00000013411045
10
251.00000301003456
20
144.50000015646219
10
251.00000301003456
20
141.50000011175871
0
LWPOLYLINE
5
308
100
AcDbEntity
8
0
100
AcDbPolyline
90
4
70
1
43
0.0
10
268.999999538064
20
144.25430911018731
10
270.99999956786633
20
144.25430911018731
10
270.99999956786633
20
142.25430908038499
10
268.999999538064
20
142.25430908038499
0
LINE
5
309
100
AcDbEntity
8
0
100
AcDbLine
10
253.50000262074184
20
153.5
30
0
11
255.15000262074182
21
153.5
31
0
0
LINE
5
310
100
AcDbEntity
8
0
100
AcDbLine
10
246.50000262074178
20
153.5
30
0
11
244.8500026207418
21
153.5
31
0
0
CIRCLE
5
311
100
AcDbEntity
8
0
100
AcDbCircle
10
265.00000573694706
20
290.00000432133675
30
0
40
2.0000000298023224
210
0
220
0
230
1
0
LINE
5
312
100
AcDbEntity
8
0
100
AcDbLine
10
256.49703027197381
20
265.41545532860403
30
0
11
257.56722242599244
21
264.92900434950462
31
0
0
ARC
5
313
100
AcDbEntity
8
0
100
AcDbCircle
10
295.00000000000006
20
292.00000000000011
30
0
40
4.9999999999999289
210
0
220
0
230
1
100
AcDbArc
50
0
51
90
0
LINE
5
314
100
AcDbEntity
8
0
100
AcDbLine
10
245
20
297.00000009245343
30
0
11
254.9999999075466
21
297.0000002773603
31
0
0
LINE
5
315
100
AcDbEntity
8
0
100
AcDbLine
10
255.54116691216649
20
256.36077803085129
30
0
11
255.54116691216649
21
255.0000037997961
31
0
0
CIRCLE
5
316
100
AcDbEntity
8
0
100
AcDbCircle
10
294.99999426305294
20
290.00000432133675
30
0
40
2.0000000298023224
210
0
220
0
230
1
0
LWPOLYLINE
5
317
100
AcDbEntity
8
0
100
AcDbPolyline
90
4
70
1
43
0.0
10
245.99999949336052
20
279.99999706447124
10
253.99999961256981
20
279.99999706447124
10
253.99999961256981
20
280.29999706447131
10
245.99999949336052
20
280.29999706447131
0
LWPOLYLINE
5
318
100
AcDbEntity
8
0
100
AcDbPolyline
90
4
70
1
43
0.0
10
253.99999961256981
20
270.29999706447131
10
245.99999949336052
20
270.29999706447131
10
245.99999949336052
20
269.99999706447124
10
253.99999961256981
20
269.99999706447124
0
ARC
5
319
100
AcDbEntity
8
0
100
AcDbCircle
10
264.99999999999994
20
292.00000000000011
30
0
40
4.9999999999999289
210
0
220
-0
230
1
100
AcDbArc
50
89.999999999999346
51
180
0
LWPOLYLINE
5
320
100
AcDbEntity
8
0
100
AcDbPolyline
90
4
70
1
43
0.0
10
253.99999961256981
20
259.99999706447124
10
253.99999961256981
20
260.29999706447131
10
245.99999949336052
20
260.29999706447131
10
245.99999949336052
20
259.99999706447124
0
LINE
5
321
100
AcDbEntity
8
0
100
AcDbLine
10
258.50000564008951
20
246.50000367313623
30
0
11
257.79545724006738
21
244.80303590753181
31
0
0
LINE
5
322
100
AcDbEntity
8
0
100
AcDbLine
10
256.00000560283661
20
264.00000393390656
30
0
11
258.44283418837131
21
264.00000393390656
31
0
0
LWPOLYLINE
5
323
100
AcDbEntity
8
0
100
AcDbPolyline
90
4
70
1
43
0.0
10
245.99999949336052
20
239.99999706447127
10
253.99999961256981
20
239.99999706447127
10
253.99999961256981
20
240.29999706447128
10
245.99999949336052
20
240.29999706447128
0
LINE
5
324
100
AcDbEntity
8
0
100
AcDbLine
10
257.56722242599244
20
264.92900434950462
30
0
11
259.02657536329053
21
265.41545532860403
31
0
0
LINE
5
325
100
AcDbEntity
8
0
100
AcDbLine
10
257.03276469813312
20
272.74480686766947
30
0
11
255.71521237431887
21
274.16370937023868
31
0
0
LWPOLYLINE
5
326
100
AcDbEntity
8
0
100
AcDbPolyline
90
4
70
1
43
0.0
10
245.99999949336052
20
199.99999706447119
10
245.99999949336052
20
200.2999970644712
10
253.99999961256981
20
200.2999970644712
10
253.99999961256981
20
199.99999706447119
0
LINE
5
327
100
AcDbEntity
8
0
100
AcDbLine
10
256.50000561028719
20
254.68039090042254
30
0
11
257.20145758763852
21
255.75000381097198
31
0
0
LINE
5
328
100
AcDbEntity
8
0
100
AcDbLine
10
257.00000561773777
20
263.00000391900539
30
0
11
256.00000560283661
21
264.00000393390656
31
0
0
LWPOLYLINE
5
329
100
AcDbEntity
8
0
100
AcDbPolyline
90
4
70
1
43
0.0
10
245.99999949336052
20
219.99999706447127
10
245.99999949336052
20
220.29999706447128
10
253.99999961256981
20
220.29999706447128
10
253.99999961256981
20
219.99999706447127
0
LINE
5
330
100
AcDbEntity
8
0
100
AcDbLine
10
256.00000560283661
20
244.00000363588333
30
0
11
257.00000561773777
21
244.50000364333391
31
0
0
LINE
5
331
100
AcDbEntity
8
0
100
AcDbLine
10
265
20
297
30
0
11
295.00000000000006
21
297
31
0
0
LINE
5
332
100
AcDbEntity
8
0
100
AcDbLine
10
259.00000564754009
20
244.00000363588333
30
0
11
258.50000564008951
21
246.50000367313623
31
0
0
LINE
5
333
100
AcDbEntity
8
0
100
AcDbLine
10
256.50000561028719
20
234.5000034943223
30
0
11
256.50000561028719
21
236.50000352412462
31
0
0
LINE
5
334
100
AcDbEntity
8
0
100
AcDbLine
10
257.50000562518835
20
245.00000365078449
30
0
11
256.00000560283661
21
246.00000366568565
31
0
0
LWPOLYLINE
5
335
100
AcDbEntity
8
0
100
AcDbPolyline
90
4
70
1
43
0.0
10
245.99999949336052
20
249.99999706447127
10
253.99999961256981
20
249.99999706447127
10
253.99999961256981
20
250.29999706447128
10
245.99999949336052
20
250.29999706447128
0
LINE
5
336
100
AcDbEntity
8
0
100
AcDbLine
10
256.00000560283661
20
276.50000412017107
30
0
11
258.50000564008951
21
276.50000412017107
31
0
0
LINE
5
337
100
AcDbEntity
8
0
100
AcDbLine
10
258.29689889464146
20
267.02074355963191
30
0
11
257.03212634898313
21
266.44584694796902
31
0
0
ARC
5
338
100
AcDbEntity
8
0
100
AcDbCircle
10
255.00000000000006
20
292.0000002773603
30
0
40
4.9999999999999289
210
0
220
0
230
1
100
AcDbArc
50
0
51
90.000001059438631
0
LINE
5
339
100
AcDbEntity
8
0
100
AcDbLine
10
257.20145758763852
20
255.75000381097198
30
0
11
256.85073159896285
21
256.36077803085129
31
0
0
LINE
5
340
100
AcDbEntity
8
0
100
AcDbLine
10
255.71521237431887
20
274.16370937023868
30
0
11
258.50000564008951
21
274.00000408291817
31
0
0
LINE
5
341
100
AcDbEntity
8
0
100
AcDbLine
10
257.00000561773777
20
244.50000364333391
30
0
11
259.00000564754009
21
244.00000363588333
31
0
0
LINE
5
342
100
AcDbEntity
8
0
100
AcDbLine
10
255.54116691216649
20
255.0000037997961
30
0
11
256.50000561028719
21
254.68039090042254
31
0
0
ARC
5
343
100
AcDbEntity
8
0
100
AcDbCircle
10
245.0000000924534
20
292.00000009245343
30
0
40
5.0000000000000009
210
0
220
0
230
1
100
AcDbArc
50
90.000001059437977
51
180.00000085377366
0
LINE
5
344
100
AcDbEntity
8
0
100
AcDbLine
10
256.50000561028719
20
257.00000382959843
30
0
11
255.54116691216649
21
256.36077803085129
31
0
0
LINE
5
345
100
AcDbEntity
8
0
100
AcDbLine
10
256.00000560283661
20
246.00000366568565
30
0
11
256.00000560283661
21
244.00000363588333
31
0
0
LINE
5
346
100
AcDbEntity
8
0
100
AcDbLine
10
256.50000561028719
20
236.50000352412462
30
0
11
259.00000564754009
21
235.00000350177288
31
0
0
LINE
5
347
100
AcDbEntity
8
0
100
AcDbLine
10
259.02657536329053
20
265.41545532860403
30
0
11
258.29689889464146
21
267.02074355963191
31
0
0
LINE
5
348
100
AcDbEntity
8
0
100
AcDbLine
10
257.00000561773777
20
275.50000410526991
30
0
11
256.00000560283661
21
276.50000412017107
31
0
0
LINE
5
349
100
AcDbEntity
8
0
100
AcDbLine
10
258.00000563263893
20
256.50000382214785
30
0
11
256.50000561028719
21
257.00000382959843
31
0
0
ARC
5
350
100
AcDbEntity
8
0
100
AcDbCircle
10
295.00000000000006
20
4.9999999999999281
30
0
40
4.9999999999999281
210
0
220
0
230
1
100
AcDbArc
50
-90
51
0
0
LINE
5
351
100
AcDbEntity
8
0
100
AcDbLine
10
293.49999912641943
20
29.699999999999989
30
0
11
294.99999912641943
21
29.699999999999989
31
0
0
ARC
5
352
100
AcDbEntity
8
0
100
AcDbCircle
10
258.50000087358063
20
9.965810200759126
30
0
40
1.5003848871269865
210
0
220
0
230
1
100
AcDbArc
50
136.42661232506879
51
310.73608149958062
0
LINE
5
353
100
AcDbEntity
8
0
100
AcDbLine
10
262.00000087358063
20
11.000000163912773
30
0
11
259.47911559568718
21
8.828933263499259
31
0
0
LINE
5
354
100
AcDbEntity
8
0
100
AcDbLine
10
263.50000087358063
20
6.8853571071357047
30
0
11
280.00000596046448
21
6.8853571071357047
31
0
0
LINE
5
355
100
AcDbEntity
8
0
100
AcDbLine
10
293.49999912641943
20
29.699999999999989
30
0
11
293.49999912641943
21
33.270714214271422
31
0
0
LINE
5
356
100
AcDbEntity
8
0
100
AcDbLine
10
263.50000087358063
20
5.0999999999999881
30
0
11
265.00000087358057
21
5.0999999999999881
31
0
0
LINE
5
357
100
AcDbEntity
8
0
100
AcDbLine
10
286.49999912641937
20
9.6999999999999886
30
0
11
284.99999912641943
21
9.6999999999999886
31
0
0
ARC
5
358
100
AcDbEntity
8
0
100
AcDbCircle
10
258.50000087358063
20
12.034190127066422
30
0
40
1.5003848871270156
210
0
220
-0
230
1
100
AcDbArc
50
49.263918500419315
51
223.57338767493127
0
LINE
5
359
100
AcDbEntity
8
0
100
AcDbLine
10
286.49999912641937
20
29.699999999999989
30
0
11
286.49999912641937
21
33.270714214271422
31
0
0
LINE
5
360
100
AcDbEntity
8
0
100
AcDbLine
10
293.49999912641943
20
9.6999999999999886
30
0
11
293.49999912641943
21
13.270714214271422
31
0
0
ARC
5
361
100
AcDbEntity
8
0
100
AcDbCircle
10
285.00000000000006
20
5.0000000000000755
30
0
40
5.0000000000000711
210
0
220
0
230
1
100
AcDbArc
50
180
51
269.99999999999932
0
ARC
5
362
100
AcDbEntity
8
0
100
AcDbCircle
10
260.00000087358057
20
5.0999999999999881
30
0
40
5
210
0
220
0
230
1
100
AcDbArc
50
-180
51
0
0
LINE
5
363
100
AcDbEntity
8
0
100
AcDbLine
10
286.49999912641937
20
9.6999999999999886
30
0
11
286.49999912641937
21
13.270714214271422
31
0
0
LINE
5
364
100
AcDbEntity
8
0
100
AcDbLine
10
256.50000087358057
20
5.0999999999999881
30
0
11
256.50000087358057
21
6.8853571071357047
31
0
0
LINE
5
365
100
AcDbEntity
8
0
100
AcDbLine
10
256.50000087358057
20
5.0999999999999881
30
0
11
255.0000008735806
21
5.0999999999999881
31
0
0
LINE
5
366
100
AcDbEntity
8
0
100
AcDbLine
10
293.49999912641943
20
9.6999999999999886
30
0
11
294.99999912641943
21
9.6999999999999886
31
0
0
LINE
5
367
100
AcDbEntity
8
0
100
AcDbLine
10
286.49999912641937
20
29.699999999999989
30
0
11
284.99999912641943
21
29.699999999999989
31
0
0
ARC
5
368
100
AcDbEntity
8
0
100
AcDbCircle
10
289.99999912641943
20
29.699999999999989
30
0
40
5
210
0
220
0
230
1
100
AcDbArc
50
-180
51
0
0
LINE
5
369
100
AcDbEntity
8
0
100
AcDbLine
10
263.50000087358063
20
5.0999999999999881
30
0
11
263.50000087358063
21
6.8853571071357047
31
0
0
LINE
5
370
100
AcDbEntity
8
0
100
AcDbLine
10
256.50000087358057
20
6.8853571071357047
30
0
11
240.00000536441803
21
6.8853571071357047
31
0
0
LINE
5
371
100
AcDbEntity
8
0
100
AcDbLine
10
295.00000000000006
20
0
30
0
11
285
21
5.5511151231257827e-15
31
0
0
LINE
5
372
100
AcDbEntity
8
0
100
AcDbLine
10
262.00000087358063
20
11.000000163912773
30
0
11
259.47911559568718
21
13.171067064326287
31
0
0
ARC
5
373
100
AcDbEntity
8
0
100
AcDbCircle
10
289.99999912641943
20
9.6999999999999886
30
0
40
5
210
0
220
0
230
1
100
AcDbArc
50
-180
51
0
0
LINE
5
374
100
AcDbEntity
8
0
100
AcDbLine
10
256.45887930727292
20
216.71470398787125
30
0
11
256.45887930727292
21
215.00000320374966
31
0
0
LWPOLYLINE
5
375
100
AcDbEntity
8
0
100
AcDbPolyline
90
4
70
1
43
0.0
10
253.99999961256981
20
229.99999706447127
10
253.99999961256981
20
230.29999706447128
10
245.99999949336052
20
230.29999706447128
10
245.99999949336052
20
229.99999706447127
0
LINE
5
376
100
AcDbEntity
8
0
100
AcDbLine
10
258.56706986806864
20
216.36909897790474
30
0
11
258.20418460760379
21
215.2631629460119
31
0
0
LWPOLYLINE
5
377
100
AcDbEntity
8
0
100
AcDbPolyline
90
4
70
1
43
0.0
10
245.99999949336052
20
209.99999706447119
10
253.99999961256981
20
209.99999706447119
10
253.99999961256981
20
210.2999970644712
10
245.99999949336052
20
210.2999970644712
0
LINE
5
378
100
AcDbEntity
8
0
100
AcDbLine
10
259.13764662287258
20
224.92417425946962
30
0
11
258.56882612775576
21
226.28449213905995
31
0
0
LINE
5
379
100
AcDbEntity
8
0
100
AcDbLine
10
257.73761784414899
20
204.82589164502321
30
0
11
257.73761784414899
21
207.00000308454037
31
0
0
LINE
5
380
100
AcDbEntity
8
0
100
AcDbLine
10
257.20149964254
20
224.34834515872737
30
0
11
258.00000563263893
21
224.34834515872737
31
0
0
LINE
5
381
100
AcDbEntity
8
0
100
AcDbLine
10
257.32289183218927
20
215.00000320374966
30
0
11
257.32289183218927
21
216.36909897790474
31
0
0
LINE
5
382
100
AcDbEntity
8
0
100
AcDbLine
10
259.18915888600839
20
206.45023519186583
30
0
11
256.49343980826956
21
206.45023519186583
31
0
0
ARC
5
383
100
AcDbEntity
8
0
100
AcDbCircle
10
250.00000262074181
20
153.51894359424594
30
0
40
5.1500348406358398
210
0
220
0
230
1
100
AcDbArc
50
180.21075400075634
51
359.78924599924369
0
LINE
5
384
100
AcDbEntity
8
0
100
AcDbLine
10
251.00000301003456
20
144.50000015646219
30
0
11
251.00000301003456
21
141.50000011175871
31
0
0
LINE
5
385
100
AcDbEntity
8
0
100
AcDbLine
10
253.50000262074184
20
153.5
30
0
11
253.50000262074184
21
157.07071421427145
31
0
0
LINE
5
386
100
AcDbEntity
8
0
100
AcDbLine
10
259.00000564754009
20
255.0000037997961
30
0
11
258.00000563263893
21
256.50000382214785
31
0
0
LINE
5
387
100
AcDbEntity
8
0
100
AcDbLine
10
253.99999961256981
20
190.2999970644712
30
0
11
253.99999961256981
21
189.99999706447119
31
0
0
LWPOLYLINE
5
388
100
AcDbEntity
8
0
100
AcDbPolyline
90
4
70
1
43
0.0
10
253.99999961256981
20
169.99999706447119
10
253.99999961256981
20
170.2999970644712
10
245.99999949336052
20
170.2999970644712
10
245.99999949336052
20
169.99999706447119
0
LWPOLYLINE
5
389
100
AcDbEntity
8
0
100
AcDbPolyline
90
4
70
1
43
0.0
10
255
20
189.99999706447119
10
255
20
190.2999970644712
10
245.99999949336052
20
190.2999970644712
10
245.99999949336052
20
189.99999706447119
0
LINE
5
390
100
AcDbEntity
8
0
100
AcDbLine
10
256.66236284108351
20
195.18430933195148
30
0
11
257.55801498246541
21
194.44516061737954
31
0
0
LINE
5
391
100
AcDbEntity
8
0
100
AcDbLine
10
257.00000561773777
20
174.00000259280205
30
0
11
255.50000559538603
21
175.00000260770321
31
0
0
LINE
5
392
100
AcDbEntity
8
0
100
AcDbLine
10
258.45772712200096
20
195.53537303135761
30
0
11
258.99105840867634
21
194.44516061737954
31
0
0
LWPOLYLINE
5
393
100
AcDbEntity
8
0
100
AcDbPolyline
90
4
70
1
43
0.0
10
245.99999949336052
20
179.99999706447119
10
253.99999961256981
20
179.99999706447119
10
253.99999961256981
20
180.2999970644712
10
245.99999949336052
20
180.2999970644712
0
LINE
5
394
100
AcDbEntity
8
0
100
AcDbLine
10
255.71588713580161
20
185.10178305727604
30
0
11
256.79255387224873
21
186.25723028663398
31
0
0
LINE
5
395
100
AcDbEntity
8
0
100
AcDbLine
10
255.50000559538603
20
175.00000260770321
30
0
11
259.00000564754009
21
175.00000260770321
31
0
0
LINE
5
396
100
AcDbEntity
8
0
100
AcDbLine
10
259.10811664328048
20
184.09954679544543
30
0
11
258.77459945525345
21
186.54549527205728
31
0
0
LINE
5
397
100
AcDbEntity
8
0
100
AcDbLine
10
256.66236284108351
20
193.0837693624791
30
0
11
255.65923244273586
21
194.44516061737954
31
0
0
LINE
5
398
100
AcDbEntity
8
0
100
AcDbLine
10
258.00000563263893
20
226.28449213905995
30
0
11
258.00000563263893
21
225.00000335276127
31
0
0
LINE
5
399
100
AcDbEntity
8
0
100
AcDbLine
10
258.00000563263893
20
224.34834515872737
30
0
11
259.13764662287258
21
224.92417425946962
31
0
0
LINE
5
400
100
AcDbEntity
8
0
100
AcDbLine
10
258.56882612775576
20
226.28449213905995
30
0
11
258.00000563263893
21
226.28449213905995
31
0
0
LINE
5
401
100
AcDbEntity
8
0
100
AcDbLine
10
256.50000561028719
20
225.50000336021185
30
0
11
257.20149964254
21
224.34834515872737
31
0
0
LINE
5
402
100
AcDbEntity
8
0
100
AcDbLine
10
256.56256081026288
20
204.82589164502321
30
0
11
257.73761784414899
21
204.82589164502321
31
0
0
LINE
5
403
100
AcDbEntity
8
0
100
AcDbLine
10
256.45887930727292
20
215.00000320374966
30
0
11
257.32289183218927
21
215.00000320374966
31
0
0
LINE
5
404
100
AcDbEntity
8
0
100
AcDbLine
10
257.32289183218927
20
216.36909897790474
30
0
11
257.84129934713894
21
216.71470398787125
31
0
0
LINE
5
405
100
AcDbEntity
8
0
100
AcDbLine
10
257.84129934713894
20
216.71470398787125
30
0
11
258.56706986806864
21
216.36909897790474
31
0
0
LINE
5
406
100
AcDbEntity
8
0
100
AcDbLine
10
246.50000262074178
20
153.5
30
0
11
246.50000262074178
21
157.07071421427145
31
0
0
LINE
5
407
100
AcDbEntity
8
0
100
AcDbLine
10
240.0000000924534
20
292.00000000000006
30
0
11
240.00000536441803
21
6.8853571071357047
31
0
0
LINE
5
408
100
AcDbEntity
8
0
100
AcDbLine
10
260
20
292.0000002773603
30
0
11
260
21
288.00000429153442
31
0
0
LINE
5
409
100
AcDbEntity
8
0
100
AcDbLine
10
260
20
286.50000426918268
30
0
11
260
21
55
31
0
0
LINE
5
410
100
AcDbEntity
8
0
100
AcDbLine
10
300
20
292.00000000000006
30
0
11
300
21
288.00000429153442
31
0
0
LINE
5
411
100
AcDbEntity
8
0
100
AcDbLine
10
320
20
292.0000002773603
30
0
11
320
21
288.00000429153442
31
0
0
LINE
5
412
100
AcDbEntity
8
0
100
AcDbLine
10
320
20
286.50000426918268
30
0
11
320
21
55
31
0
0
LINE
5
413
100
AcDbEntity
8
0
100
AcDbLine
10
360
20
292.00000000000006
30
0
11
360
21
288.00000429153442
31
0
0
LINE
5
414
100
AcDbEntity
8
0
100
AcDbLine
10
360
20
292.00000000000006
30
0
11
360
21
288.00000429153442
31
0
0
LINE
5
415
100
AcDbEntity
8
0
100
AcDbLine
10
380
20
292.0000002773603
30
0
11
380
21
288.00000429153442
31
0
0
LINE
5
416
100
AcDbEntity
8
0
100
AcDbLine
10
380
20
286.50000426918268
30
0
11
380
21
55
31
0
0
LINE
5
417
100
AcDbEntity
8
0
100
AcDbLine
10
400
20
269.99999706447124
30
0
11
400
21
16.50000024586916
31
0
0
LINE
5
418
100
AcDbEntity
8
0
100
AcDbLine
10
400
20
15
30
0
11
400
21
4.9999999999999645
31
0
0
LINE
5
419
100
AcDbEntity
8
0
100
AcDbLine
10
360
20
286.50000426918268
30
0
11
360.00000517996068
21
16.50000024586916
31
0
0
LINE
5
420
100
AcDbEntity
8
0
100
AcDbLine
10
360.00000520873823
20
15
30
0
11
360
21
4.9999999999999645
31
0
0
LINE
5
421
100
AcDbEntity
8
0
100
AcDbLine
10
340
20
269.99999706447124
30
0
11
340
21
16.50000024586916
31
0
0
LINE
5
422
100
AcDbEntity
8
0
100
AcDbLine
10
340
20
15
30
0
11
340
21
4.9999999999999645
31
0
0
LINE
5
423
100
AcDbEntity
8
0
100
AcDbLine
10
300
20
286.50000426918268
30
0
11
300
21
16.50000024586916
31
0
0
LINE
5
424
100
AcDbEntity
8
0
100
AcDbLine
10
300
20
15
30
0
11
300
21
4.9999999999999645
31
0
0
LINE
5
425
100
AcDbEntity
8
0
100
AcDbLine
10
280
20
269.99999706447124
30
0
11
280
21
16.50000024586916
31
0
0
LINE
5
426
100
AcDbEntity
8
0
100
AcDbLine
10
280
20
15
30
0
11
280
21
4.9999999999999645
31
0
0
ARC
5
427
100
AcDbEntity
8
0
100
AcDbCircle
10
269.99999737925816
20
153.51894359424594
30
0
40
5.1500348406358398
210
0
220
0
230
1
100
AcDbArc
50
180.21075400075634
51
359.78924599924369
0
LINE
5
428
100
AcDbEntity
8
0
100
AcDbLine
10
266.49999737925816
20
153.5
30
0
11
266.49999737925816
21
157.07071421427145
31
0
0
LINE
5
429
100
AcDbEntity
8
0
100
AcDbLine
10
273.49999737925822
20
153.5
30
0
11
273.49999737925822
21
157.07071421427145
31
0
0
LINE
5
430
100
AcDbEntity
8
0
100
AcDbLine
10
273.49999737925822
20
153.5
30
0
11
275.1499973792582
21
153.5
31
0
0
LINE
5
431
100
AcDbEntity
8
0
100
AcDbLine
10
266.49999737925816
20
153.5
30
0
11
264.84999737925818
21
153.5
31
0
0
LINE
5
432
100
AcDbEntity
8
0
100
AcDbLine
10
313.50000262074184
20
153.5
30
0
11
313.50000262074184
21
157.07071421427145
31
0
0
LINE
5
433
100
AcDbEntity
8
0
100
AcDbLine
10
333.49999737925822
20
153.5
30
0
11
333.49999737925822
21
157.07071421427145
31
0
0
LINE
5
434
100
AcDbEntity
8
0
100
AcDbLine
10
313.50000262074184
20
153.5
30
0
11
315.15000262074182
21
153.5
31
0
0
ARC
5
435
100
AcDbEntity
8
0
100
AcDbCircle
10
310.00000262074184
20
153.51894359424594
30
0
40
5.1500348406358398
210
0
220
0
230
1
100
AcDbArc
50
180.21075400075634
51
359.78924599924369
0
LINE
5
436
100
AcDbEntity
8
0
100
AcDbLine
10
333.49999737925822
20
153.5
30
0
11
335.1499973792582
21
153.5
31
0
0
ARC
5
437
100
AcDbEntity
8
0
100
AcDbCircle
10
329.99999737925816
20
153.51894359424594
30
0
40
5.1500348406358398
210
0
220
0
230
1
100
AcDbArc
50
180.21075400075634
51
359.78924599924369
0
LINE
5
438
100
AcDbEntity
8
0
100
AcDbLine
10
306.50000262074178
20
153.5
30
0
11
306.50000262074178
21
157.07071421427145
31
0
0
LINE
5
439
100
AcDbEntity
8
0
100
AcDbLine
10
326.49999737925816
20
153.5
30
0
11
326.49999737925816
21
157.07071421427145
31
0
0
LINE
5
440
100
AcDbEntity
8
0
100
AcDbLine
10
306.50000262074178
20
153.5
30
0
11
304.8500026207418
21
153.5
31
0
0
LINE
5
441
100
AcDbEntity
8
0
100
AcDbLine
10
326.49999737925816
20
153.5
30
0
11
324.84999737925818
21
153.5
31
0
0
LINE
5
442
100
AcDbEntity
8
0
100
AcDbLine
10
373.50000262074184
20
153.5
30
0
11
373.50000262074184
21
157.07071421427145
31
0
0
LINE
5
443
100
AcDbEntity
8
0
100
AcDbLine
10
393.49999737925822
20
153.5
30
0
11
393.49999737925822
21
157.07071421427145
31
0
0
LINE
5
444
100
AcDbEntity
8
0
100
AcDbLine
10
373.50000262074184
20
153.5
30
0
11
375.15000262074182
21
153.5
31
0
0
ARC
5
445
100
AcDbEntity
8
0
100
AcDbCircle
10
370.00000262074184
20
153.51894359424594
30
0
40
5.1500348406358398
210
0
220
0
230
1
100
AcDbArc
50
180.21075400075634
51
359.78924599924369
0
LINE
5
446
100
AcDbEntity
8
0
100
AcDbLine
10
393.49999737925822
20
153.5
30
0
11
395.1499973792582
21
153.5
31
0
0
ARC
5
447
100
AcDbEntity
8
0
100
AcDbCircle
10
389.99999737925816
20
153.51894359424594
30
0
40
5.1500348406358398
210
0
220
0
230
1
100
AcDbArc
50
180.21075400075634
51
359.78924599924369
0
LINE
5
448
100
AcDbEntity
8
0
100
AcDbLine
10
366.50000262074178
20
153.5
30
0
11
366.50000262074178
21
157.07071421427145
31
0
0
LINE
5
449
100
AcDbEntity
8
0
100
AcDbLine
10
386.49999737925816
20
153.5
30
0
11
386.49999737925816
21
157.07071421427145
31
0
0
LINE
5
450
100
AcDbEntity
8
0
100
AcDbLine
10
366.50000262074178
20
153.5
30
0
11
364.8500026207418
21
153.5
31
0
0
LINE
5
451
100
AcDbEntity
8
0
100
AcDbLine
10
386.49999737925816
20
153.5
30
0
11
384.84999737925818
21
153.5
31
0
0
LINE
5
452
100
AcDbEntity
8
0
100
AcDbLine
10
413.49999912641943
20
49.699999999999989
30
0
11
414.99999912641943
21
49.699999999999989
31
0
0
LINE
5
453
100
AcDbEntity
8
0
100
AcDbLine
10
406.49999912641937
20
49.699999999999989
30
0
11
406.49999912641937
21
53.270714214271422
31
0
0
LINE
5
454
100
AcDbEntity
8
0
100
AcDbLine
10
413.49999912641943
20
49.699999999999989
30
0
11
413.49999912641943
21
53.270714214271422
31
0
0
LINE
5
455
100
AcDbEntity
8
0
100
AcDbLine
10
406.49999912641937
20
49.699999999999989
30
0
11
404.99999912641943
21
49.699999999999989
31
0
0
ARC
5
456
100
AcDbEntity
8
0
100
AcDbCircle
10
409.99999912641943
20
49.699999999999989
30
0
40
5
210
0
220
0
230
1
100
AcDbArc
50
-180
51
0
0
LINE
5
457
100
AcDbEntity
8
0
100
AcDbLine
10
353.49999912641943
20
49.699999999999989
30
0
11
353.49999912641943
21
53.270714214271422
31
0
0
LINE
5
458
100
AcDbEntity
8
0
100
AcDbLine
10
286.49999912641937
20
49.699999999999989
30
0
11
284.99999912641943
21
49.699999999999989
31
0
0
LINE
5
459
100
AcDbEntity
8
0
100
AcDbLine
10
346.49999912641937
20
49.699999999999989
30
0
11
344.99999912641943
21
49.699999999999989
31
0
0
LINE
5
460
100
AcDbEntity
8
0
100
AcDbLine
10
293.49999912641943
20
49.699999999999989
30
0
11
294.99999912641943
21
49.699999999999989
31
0
0
LINE
5
461
100
AcDbEntity
8
0
100
AcDbLine
10
293.49999912641943
20
49.699999999999989
30
0
11
293.49999912641943
21
53.270714214271422
31
0
0
ARC
5
462
100
AcDbEntity
8
0
100
AcDbCircle
10
289.99999912641943
20
49.699999999999989
30
0
40
5
210
0
220
0
230
1
100
AcDbArc
50
-180
51
0
0
LINE
5
463
100
AcDbEntity
8
0
100
AcDbLine
10
353.49999912641943
20
49.699999999999989
30
0
11
354.99999912641943
21
49.699999999999989
31
0
0
ARC
5
464
100
AcDbEntity
8
0
100
AcDbCircle
10
349.99999912641943
20
49.699999999999989
30
0
40
5
210
0
220
0
230
1
100
AcDbArc
50
-180
51
0
0
LINE
5
465
100
AcDbEntity
8
0
100
AcDbLine
10
346.49999912641937
20
49.699999999999989
30
0
11
346.49999912641937
21
53.270714214271422
31
0
0
LINE
5
466
100
AcDbEntity
8
0
100
AcDbLine
10
286.49999912641937
20
49.699999999999989
30
0
11
286.49999912641937
21
53.270714214271422
31
0
0
LINE
5
467
100
AcDbEntity
8
0
100
AcDbLine
10
413.49999912641943
20
69.699999999999989
30
0
11
414.99999912641943
21
69.699999999999989
31
0
0
LINE
5
468
100
AcDbEntity
8
0
100
AcDbLine
10
406.49999912641937
20
69.699999999999989
30
0
11
406.49999912641937
21
73.270714214271422
31
0
0
LINE
5
469
100
AcDbEntity
8
0
100
AcDbLine
10
413.49999912641943
20
69.699999999999989
30
0
11
413.49999912641943
21
73.270714214271422
31
0
0
LINE
5
470
100
AcDbEntity
8
0
100
AcDbLine
10
406.49999912641937
20
69.699999999999989
30
0
11
404.99999912641943
21
69.699999999999989
31
0
0
ARC
5
471
100
AcDbEntity
8
0
100
AcDbCircle
10
409.99999912641943
20
69.699999999999989
30
0
40
5
210
0
220
0
230
1
100
AcDbArc
50
-180
51
0
0
LINE
5
472
100
AcDbEntity
8
0
100
AcDbLine
10
353.49999912641943
20
69.699999999999989
30
0
11
353.49999912641943
21
73.270714214271422
31
0
0
LINE
5
473
100
AcDbEntity
8
0
100
AcDbLine
10
286.49999912641937
20
69.699999999999989
30
0
11
284.99999912641943
21
69.699999999999989
31
0
0
LINE
5
474
100
AcDbEntity
8
0
100
AcDbLine
10
346.49999912641937
20
69.699999999999989
30
0
11
344.99999912641943
21
69.699999999999989
31
0
0
LINE
5
475
100
AcDbEntity
8
0
100
AcDbLine
10
293.49999912641943
20
69.699999999999989
30
0
11
294.99999912641943
21
69.699999999999989
31
0
0
LINE
5
476
100
AcDbEntity
8
0
100
AcDbLine
10
293.49999912641943
20
69.699999999999989
30
0
11
293.49999912641943
21
73.270714214271422
31
0
0
ARC
5
477
100
AcDbEntity
8
0
100
AcDbCircle
10
289.99999912641943
20
69.699999999999989
30
0
40
5
210
0
220
0
230
1
100
AcDbArc
50
-180
51
0
0
LINE
5
478
100
AcDbEntity
8
0
100
AcDbLine
10
353.49999912641943
20
69.699999999999989
30
0
11
354.99999912641943
21
69.699999999999989
31
0
0
ARC
5
479
100
AcDbEntity
8
0
100
AcDbCircle
10
349.99999912641943
20
69.699999999999989
30
0
40
5
210
0
220
0
230
1
100
AcDbArc
50
-180
51
0
0
LINE
5
480
100
AcDbEntity
8
0
100
AcDbLine
10
346.49999912641937
20
69.699999999999989
30
0
11
346.49999912641937
21
73.270714214271422
31
0
0
LINE
5
481
100
AcDbEntity
8
0
100
AcDbLine
10
286.49999912641937
20
69.699999999999989
30
0
11
286.49999912641937
21
73.270714214271422
31
0
0
ARC
5
482
100
AcDbEntity
8
0
100
AcDbCircle
10
250.00000262074181
20
133.51894359424594
30
0
40
5.1500348406358398
210
0
220
0
230
1
100
AcDbArc
50
180.21075400075634
51
359.78924599924369
0
LINE
5
483
100
AcDbEntity
8
0
100
AcDbLine
10
266.49999737925816
20
133.5
30
0
11
264.84999737925818
21
133.5
31
0
0
LINE
5
484
100
AcDbEntity
8
0
100
AcDbLine
10
253.50000262074184
20
133.5
30
0
11
253.50000262074184
21
137.07071421427145
31
0
0
LINE
5
485
100
AcDbEntity
8
0
100
AcDbLine
10
333.49999737925822
20
133.5
30
0
11
333.49999737925822
21
137.07071421427145
31
0
0
ARC
5
486
100
AcDbEntity
8
0
100
AcDbCircle
10
310.00000262074184
20
133.51894359424594
30
0
40
5.1500348406358398
210
0
220
0
230
1
100
AcDbArc
50
180.21075400075634
51
359.78924599924369
0
LINE
5
487
100
AcDbEntity
8
0
100
AcDbLine
10
306.50000262074178
20
133.5
30
0
11
304.8500026207418
21
133.5
31
0
0
LINE
5
488
100
AcDbEntity
8
0
100
AcDbLine
10
326.49999737925816
20
133.5
30
0
11
326.49999737925816
21
137.07071421427145
31
0
0
LINE
5
489
100
AcDbEntity
8
0
100
AcDbLine
10
313.50000262074184
20
133.5
30
0
11
315.15000262074182
21
133.5
31
0
0
ARC
5
490
100
AcDbEntity
8
0
100
AcDbCircle
10
370.00000262074184
20
133.51894359424594
30
0
40
5.1500348406358398
210
0
220
0
230
1
100
AcDbArc
50
180.21075400075634
51
359.78924599924369
0
LINE
5
491
100
AcDbEntity
8
0
100
AcDbLine
10
246.50000262074178
20
133.5
30
0
11
244.8500026207418
21
133.5
31
0
0
LINE
5
492
100
AcDbEntity
8
0
100
AcDbLine
10
306.50000262074178
20
133.5
30
0
11
306.50000262074178
21
137.07071421427145
31
0
0
LINE
5
493
100
AcDbEntity
8
0
100
AcDbLine
10
333.49999737925822
20
133.5
30
0
11
335.1499973792582
21
133.5
31
0
0
LINE
5
494
100
AcDbEntity
8
0
100
AcDbLine
10
393.49999737925822
20
133.5
30
0
11
395.1499973792582
21
133.5
31
0
0
LINE
5
495
100
AcDbEntity
8
0
100
AcDbLine
10
326.49999737925816
20
133.5
30
0
11
324.84999737925818
21
133.5
31
0
0
LINE
5
496
100
AcDbEntity
8
0
100
AcDbLine
10
313.50000262074184
20
133.5
30
0
11
313.50000262074184
21
137.07071421427145
31
0
0
ARC
5
497
100
AcDbEntity
8
0
100
AcDbCircle
10
329.99999737925816
20
133.51894359424594
30
0
40
5.1500348406358398
210
0
220
0
230
1
100
AcDbArc
50
180.21075400075634
51
359.78924599924369
0
LINE
5
498
100
AcDbEntity
8
0
100
AcDbLine
10
373.50000262074184
20
133.5
30
0
11
373.50000262074184
21
137.07071421427145
31
0
0
LINE
5
499
100
AcDbEntity
8
0
100
AcDbLine
10
366.50000262074178
20
133.5
30
0
11
364.8500026207418
21
133.5
31
0
0
LINE
5
500
100
AcDbEntity
8
0
100
AcDbLine
10
253.50000262074184
20
133.5
30
0
11
255.15000262074182
21
133.5
31
0
0
ARC
5
501
100
AcDbEntity
8
0
100
AcDbCircle
10
389.99999737925816
20
133.51894359424594
30
0
40
5.1500348406358398
210
0
220
0
230
1
100
AcDbArc
50
180.21075400075634
51
359.78924599924369
0
LINE
5
502
100
AcDbEntity
8
0
100
AcDbLine
10
273.49999737925822
20
133.5
30
0
11
273.49999737925822
21
137.07071421427145
31
0
0
LINE
5
503
100
AcDbEntity
8
0
100
AcDbLine
10
373.50000262074184
20
133.5
30
0
11
375.15000262074182
21
133.5
31
0
0
LINE
5
504
100
AcDbEntity
8
0
100
AcDbLine
10
273.49999737925822
20
133.5
30
0
11
275.1499973792582
21
133.5
31
0
0
LINE
5
505
100
AcDbEntity
8
0
100
AcDbLine
10
393.49999737925822
20
133.5
30
0
11
393.49999737925822
21
137.07071421427145
31
0
0
LINE
5
506
100
AcDbEntity
8
0
100
AcDbLine
10
266.49999737925816
20
133.5
30
0
11
266.49999737925816
21
137.07071421427145
31
0
0
LINE
5
507
100
AcDbEntity
8
0
100
AcDbLine
10
386.49999737925816
20
133.5
30
0
11
384.84999737925818
21
133.5
31
0
0
LINE
5
508
100
AcDbEntity
8
0
100
AcDbLine
10
386.49999737925816
20
133.5
30
0
11
386.49999737925816
21
137.07071421427145
31
0
0
LINE
5
509
100
AcDbEntity
8
0
100
AcDbLine
10
246.50000262074178
20
133.5
30
0
11
246.50000262074178
21
137.07071421427145
31
0
0
LINE
5
510
100
AcDbEntity
8
0
100
AcDbLine
10
366.50000262074178
20
133.5
30
0
11
366.50000262074178
21
137.07071421427145
31
0
0
ARC
5
511
100
AcDbEntity
8
0
100
AcDbCircle
10
269.99999737925816
20
133.51894359424594
30
0
40
5.1500348406358398
210
0
220
0
230
1
100
AcDbArc
50
180.21075400075634
51
359.78924599924369
0
ENDSEC
0
SECTION
2
OBJECTS
0
DICTIONARY
5
C
100
AcDbDictionary
3
ACAD_GROUP
350
D
3
ACAD_MLINESTYLE
350
17
0
DICTIONARY
5
D
100
AcDbDictionary
0
DICTIONARY
5
1A
330
C
100
AcDbDictionary
0
DICTIONARY
5
17
100
AcDbDictionary
0
ENDSEC
0
EOF
