0
SECTION
2
HEADER
9
$INSUNITS
70
4
9
$ACADVER
1
AC1014
9
$HANDSEED
5
FFFF
0
ENDSEC
0
SECTION
2
TABLES
0
TABLE
2
VPORT
5
8
100
AcDbSymbolTable
0
ENDTAB
0
TABLE
2
LTYPE
5
5
100
AcDbSymbolTable
0
LTYPE
5
14
100
AcDbSymbolTableRecord
100
AcDbLinetypeTableRecord
2
BYBLOCK
70
0
0
LTYPE
5
15
100
AcDbSymbolTableRecord
100
AcDbLinetypeTableRecord
2
BYLAYER
70
0
0
ENDTAB
0
TABLE
2
LAYER
5
2
100
AcDbSymbolTable
70
2
0
LAYER
5
50
100
AcDbSymbolTableRecord
100
AcDbLayerTableRecord
2
0
70
0
6
CONTINUOUS
0
ENDTAB
0
TABLE
2
STYLE
5
3
100
AcDbSymbolTable
70
1
0
STYLE
5
11
100
AcDbSymbolTableRecord
100
AcDbTextStyleTableRecord
2
STANDARD
70
0
0
ENDTAB
0
TABLE
2
VIEW
5
6
100
AcDbSymbolTable
70
0
0
ENDTAB
0
TABLE
2
UCS
5
7
100
AcDbSymbolTable
70
0
0
ENDTAB
0
TABLE
2
APPID
5
9
100
AcDbSymbolTable
70
2
0
APPID
5
12
100
AcDbSymbolTableRecord
100
AcDbRegAppTableRecord
2
ACAD
70
0
0
ENDTAB
0
TABLE
2
DIMSTYLE
5
A
100
AcDbSymbolTable
70
1
0
ENDTAB
0
TABLE
2
BLOCK_RECORD
5
1
100
AcDbSymbolTable
70
1
0
BLOCK_RECORD
5
1F
100
AcDbSymbolTableRecord
100
AcDbBlockTableRecord
2
*MODEL_SPACE
0
BLOCK_RECORD
5
1B
100
AcDbSymbolTableRecord
100
AcDbBlockTableRecord
2
*PAPER_SPACE
0
ENDTAB
0
ENDSEC
0
SECTION
2
BLOCKS
0
BLOCK
5
20
100
AcDbEntity
100
AcDbBlockBegin
2
*MODEL_SPACE
0
ENDBLK
5
21
100
AcDbEntity
100
AcDbBlockEnd
0
BLOCK
5
1C
100
AcDbEntity
100
AcDbBlockBegin
2
*PAPER_SPACE
0
ENDBLK
5
1D
100
AcDbEntity
100
AcDbBlockEnd
0
ENDSEC
0
SECTION
2
ENTITIES
0
LWPOLYLINE
5
100
100
AcDbEntity
8
0
100
AcDbPolyline
90
6
70
1
43
0.0
10
210
20
0
10
24.999999999999979
20
0
42
-0.41421356237309537
10
0
20
25
10
-1.7763568394002505e-14
20
272
42
-0.41421356237309442
10
24.999999999999964
20
297
10
210
20
297
0
LWPOLYLINE
5
101
100
AcDbEntity
8
0
100
AcDbPolyline
90
4
70
1
43
0.0
10
195.99999949336052
20
7.0000029355287552
10
195.99999949336052
20
6.7000029355287438
10
203.99999961256981
20
6.7000029355287438
10
203.99999961256981
20
7.0000029355287552
0
LWPOLYLINE
5
102
100
AcDbEntity
8
0
100
AcDbPolyline
90
4
70
1
43
0.0
10
175.99999949336052
20
289.99999706447124
10
183.99999961256981
20
289.99999706447124
10
183.99999961256981
20
290.29999706447131
10
175.99999949336052
20
290.29999706447131
0
LWPOLYLINE
5
103
100
AcDbEntity
8
0
100
AcDbPolyline
90
4
70
1
43
0.0
10
185.99999949336052
20
148.35000000000002
10
193.99999961256981
20
148.35000000000002
10
193.99999961256981
20
148.65000000000003
10
185.99999949336052
20
148.65000000000003
0
LINE
5
104
100
AcDbEntity
8
0
100
AcDbLine
10
210
20
0
30
0
11
210
21
297
31
0
0
ARC
5
105
100
AcDbEntity
8
0
100
AcDbCircle
10
202.50000087358069
20
147.53419012706641
30
0
40
1.5003848871270089
210
0
220
0
230
1
100
AcDbArc
50
-130.73608149958127
51
43.573387674933201
0
LINE
5
106
100
AcDbEntity
8
0
100
AcDbLine
10
199.00000087358066
20
148.56838009022007
30
0
11
201.52088615147414
21
150.73944699063358
31
0
0
LINE
5
107
100
AcDbEntity
8
0
100
AcDbLine
10
199.00000087358066
20
148.56838009022007
30
0
11
201.52088615147414
21
146.39731318980657
31
0
0
ARC
5
108
100
AcDbEntity
8
0
100
AcDbCircle
10
202.50000087358069
20
149.60257005337371
30
0
40
1.5003848871269811
210
-0
220
0
230
1
100
AcDbArc
50
-43.573387674932405
51
130.73608149958056
0
LINE
5
109
100
AcDbEntity
8
0
100
AcDbLine
10
199.00000296533108
20
12.000000134110451
30
0
11
199.00000296533108
21
15.000000178813934
31
0
0
LWPOLYLINE
5
110
100
AcDbEntity
8
0
100
AcDbPolyline
90
4
70
1
43
0.0
10
180.99999956786633
20
284.75430908038499
10
178.999999538064
20
284.75430908038499
10
178.999999538064
20
286.75430911018731
10
180.99999956786633
20
286.75430911018731
0
LWPOLYLINE
5
111
100
AcDbEntity
8
0
100
AcDbPolyline
90
3
70
1
43
0.0
10
199.00000296533108
20
12.000000134110451
10
199.00000296533108
20
15.000000178813934
10
202.00000301003456
20
13.500000156462193
0
LWPOLYLINE
5
112
100
AcDbEntity
8
0
100
AcDbPolyline
90
4
70
1
43
0.0
10
195.99999949336052
20
27.000002935528755
10
195.99999949336052
20
26.700002935528744
10
203.99999961256981
20
26.700002935528744
10
203.99999961256981
20
27.000002935528755
0
LWPOLYLINE
5
113
100
AcDbEntity
8
0
100
AcDbPolyline
90
4
70
1
43
0.0
10
183.99999961256981
20
269.99999706447124
10
183.99999961256981
20
270.29999706447131
10
175.99999949336052
20
270.29999706447131
10
175.99999949336052
20
269.99999706447124
0
ENDSEC
0
SECTION
2
OBJECTS
0
DICTIONARY
5
C
100
AcDbDictionary
3
ACAD_GROUP
350
D
3
ACAD_MLINESTYLE
350
17
0
DICTIONARY
5
D
100
AcDbDictionary
0
DICTIONARY
5
1A
330
C
100
AcDbDictionary
0
DICTIONARY
5
17
100
AcDbDictionary
0
ENDSEC
0
EOF
