0
SECTION
2
HEADER
9
$INSUNITS
70
4
9
$ACADVER
1
AC1014
9
$HANDSEED
5
FFFF
0
ENDSEC
0
SECTION
2
TABLES
0
TABLE
2
VPORT
5
8
100
AcDbSymbolTable
0
ENDTAB
0
TABLE
2
LTYPE
5
5
100
AcDbSymbolTable
0
LTYPE
5
14
100
AcDbSymbolTableRecord
100
AcDbLinetypeTableRecord
2
BYBLOCK
70
0
0
LTYPE
5
15
100
AcDbSymbolTableRecord
100
AcDbLinetypeTableRecord
2
BYLAYER
70
0
0
ENDTAB
0
TABLE
2
LAYER
5
2
100
AcDbSymbolTable
70
2
0
LAYER
5
50
100
AcDbSymbolTableRecord
100
AcDbLayerTableRecord
2
0
70
0
6
CONTINUOUS
0
ENDTAB
0
TABLE
2
STYLE
5
3
100
AcDbSymbolTable
70
1
0
STYLE
5
11
100
AcDbSymbolTableRecord
100
AcDbTextStyleTableRecord
2
STANDARD
70
0
0
ENDTAB
0
TABLE
2
VIEW
5
6
100
AcDbSymbolTable
70
0
0
ENDTAB
0
TABLE
2
UCS
5
7
100
AcDbSymbolTable
70
0
0
ENDTAB
0
TABLE
2
APPID
5
9
100
AcDbSymbolTable
70
2
0
APPID
5
12
100
AcDbSymbolTableRecord
100
AcDbRegAppTableRecord
2
ACAD
70
0
0
ENDTAB
0
TABLE
2
DIMSTYLE
5
A
100
AcDbSymbolTable
70
1
0
ENDTAB
0
TABLE
2
BLOCK_RECORD
5
1
100
AcDbSymbolTable
70
1
0
BLOCK_RECORD
5
1F
100
AcDbSymbolTableRecord
100
AcDbBlockTableRecord
2
*MODEL_SPACE
0
BLOCK_RECORD
5
1B
100
AcDbSymbolTableRecord
100
AcDbBlockTableRecord
2
*PAPER_SPACE
0
ENDTAB
0
ENDSEC
0
SECTION
2
BLOCKS
0
BLOCK
5
20
100
AcDbEntity
100
AcDbBlockBegin
2
*MODEL_SPACE
0
ENDBLK
5
21
100
AcDbEntity
100
AcDbBlockEnd
0
BLOCK
5
1C
100
AcDbEntity
100
AcDbBlockBegin
2
*PAPER_SPACE
0
ENDBLK
5
1D
100
AcDbEntity
100
AcDbBlockEnd
0
ENDSEC
0
SECTION
2
ENTITIES
0
LINE
5
100
100
AcDbEntity
8
0
100
AcDbLine
10
0
20
0
30
0
11
420
21
0
31
0
0
LINE
5
101
100
AcDbEntity
8
0
100
AcDbLine
10
8.8817841970012523e-15
20
53.695494530963842
30
0
11
0
21
0
31
0
0
LINE
5
102
100
AcDbEntity
8
0
100
AcDbLine
10
0
20
40
30
0
11
0
21
0
31
0
0
LINE
5
103
100
AcDbEntity
8
0
100
AcDbLine
10
209.85065635791324
20
61.50000613555315
30
0
11
210.15000000000001
21
61.49858393828098
31
0
0
LINE
5
104
100
AcDbEntity
8
0
100
AcDbLine
10
209.85065635791324
20
53.500000873580603
30
0
11
209.85065635791324
21
61.50000613555315
31
0
0
LINE
5
105
100
AcDbEntity
8
0
100
AcDbLine
10
210.00196624504864
20
61.50000613555315
30
0
11
209.85065635791324
21
61.50000613555315
31
0
0
LINE
5
106
100
AcDbEntity
8
0
100
AcDbLine
10
210.15000000000001
20
61.49858393828098
30
0
11
210.15000000000001
21
53.500000873580603
31
0
0
LINE
5
107
100
AcDbEntity
8
0
100
AcDbLine
10
210.00196624504864
20
61.50000613555315
30
0
11
210.14803957373402
21
61.499312131386915
31
0
0
LINE
5
108
100
AcDbEntity
8
0
100
AcDbLine
10
404.69999999999999
20
49.000000873580603
30
0
11
408.27071421427144
21
49.000000873580603
31
0
0
LINE
5
109
100
AcDbEntity
8
0
100
AcDbLine
10
404.69999999999999
20
56.000000873580603
30
0
11
404.69999999999999
21
57.500000873580603
31
0
0
LINE
5
110
100
AcDbEntity
8
0
100
AcDbLine
10
384.69999999999999
20
49.000000873580603
30
0
11
388.27071421427144
21
49.000000873580603
31
0
0
LINE
5
111
100
AcDbEntity
8
0
100
AcDbLine
10
404.69999999999999
20
56.000000873580603
30
0
11
408.27071421427144
21
56.000000873580603
31
0
0
LINE
5
112
100
AcDbEntity
8
0
100
AcDbLine
10
404.69999999999999
20
49.000000873580603
30
0
11
404.69999999999999
21
47.500000873580603
31
0
0
ARC
5
113
100
AcDbEntity
8
0
100
AcDbCircle
10
404.69999999999999
20
52.500000873580603
30
0
40
5
210
0
220
-0
230
1
100
AcDbArc
50
90
51
270
0
LINE
5
114
100
AcDbEntity
8
0
100
AcDbLine
10
384.69999999999999
20
56.000000873580603
30
0
11
388.27071421427144
21
56.000000873580603
31
0
0
LINE
5
115
100
AcDbEntity
8
0
100
AcDbLine
10
384.69999999999999
20
56.000000873580603
30
0
11
384.69999999999999
21
57.500000873580603
31
0
0
ARC
5
116
100
AcDbEntity
8
0
100
AcDbCircle
10
384.69999999999999
20
52.500000873580603
30
0
40
5
210
0
220
-0
230
1
100
AcDbArc
50
90
51
270
0
LINE
5
117
100
AcDbEntity
8
0
100
AcDbLine
10
384.69999999999999
20
49.000000873580603
30
0
11
384.69999999999999
21
47.500000873580603
31
0
0
LWPOLYLINE
5
118
100
AcDbEntity
8
0
100
AcDbPolyline
90
4
70
1
43
0.0
10
217.00000293552876
20
34.000000506639481
10
217.00000293552876
20
26.000000387430191
10
216.70000293552874
20
26.000000387430191
10
216.70000293552874
20
34.000000506639481
0
LINE
5
119
100
AcDbEntity
8
0
100
AcDbLine
10
209.85065635791324
20
61.50000613555315
30
0
11
210.15000000000001
21
61.50000613555315
31
0
0
LINE
5
120
100
AcDbEntity
8
0
100
AcDbLine
10
210.15000000000001
20
61.50000613555315
30
0
11
210.15000000000001
21
53.500000873580603
31
0
0
LINE
5
121
100
AcDbEntity
8
0
100
AcDbLine
10
210.15000000000001
20
53.500000873580603
30
0
11
209.85065635791324
21
53.500000873580603
31
0
0
LINE
5
122
100
AcDbEntity
8
0
100
AcDbLine
10
209.85065635791324
20
53.500000873580603
30
0
11
209.85065635791324
21
61.50000613555315
31
0
0
LINE
5
123
100
AcDbEntity
8
0
100
AcDbLine
10
29.699999999999989
20
13.5000008735806
30
0
11
29.699999999999989
21
15.000000873580603
31
0
0
LINE
5
124
100
AcDbEntity
8
0
100
AcDbLine
10
29.699999999999989
20
6.500000873580607
30
0
11
29.699999999999989
21
5.0000008735806034
31
0
0
LINE
5
125
100
AcDbEntity
8
0
100
AcDbLine
10
9.6999999999999886
20
6.500000873580607
30
0
11
9.6999999999999886
21
5.0000008735806034
31
0
0
LINE
5
126
100
AcDbEntity
8
0
100
AcDbLine
10
29.699999999999989
20
13.5000008735806
30
0
11
33.270714214271422
21
13.5000008735806
31
0
0
ARC
5
127
100
AcDbEntity
8
0
100
AcDbCircle
10
9.6999999999999886
20
10.000000873580603
30
0
40
5
210
0
220
-0
230
1
100
AcDbArc
50
90
51
270
0
LINE
5
128
100
AcDbEntity
8
0
100
AcDbLine
10
9.6999999999999886
20
13.5000008735806
30
0
11
13.270714214271422
21
13.5000008735806
31
0
0
LINE
5
129
100
AcDbEntity
8
0
100
AcDbLine
10
29.699999999999989
20
6.500000873580607
30
0
11
33.270714214271422
21
6.500000873580607
31
0
0
LINE
5
130
100
AcDbEntity
8
0
100
AcDbLine
10
9.6999999999999886
20
6.500000873580607
30
0
11
13.270714214271422
21
6.500000873580607
31
0
0
ARC
5
131
100
AcDbEntity
8
0
100
AcDbCircle
10
29.699999999999989
20
10.000000873580603
30
0
40
5
210
0
220
-0
230
1
100
AcDbArc
50
90
51
270
0
LINE
5
132
100
AcDbEntity
8
0
100
AcDbLine
10
9.6999999999999886
20
13.5000008735806
30
0
11
9.6999999999999886
21
15.000000873580603
31
0
0
LWPOLYLINE
5
133
100
AcDbEntity
8
0
100
AcDbPolyline
90
4
70
1
43
0.0
10
6.7000029355287438
20
26.000000387430191
10
6.7000029355287438
20
34.000000506639481
10
7.0000029355287552
20
34.000000506639481
10
7.0000029355287552
20
26.000000387430191
0
LINE
5
134
100
AcDbEntity
8
0
100
AcDbLine
10
35.300000000000011
20
56.000000873580618
30
0
11
35.300000000000011
21
57.500000873580603
31
0
0
LINE
5
135
100
AcDbEntity
8
0
100
AcDbLine
10
15.300000000000011
20
56.000000873580618
30
0
11
15.300000000000011
21
57.500000873580603
31
0
0
LINE
5
136
100
AcDbEntity
8
0
100
AcDbLine
10
35.300000000000011
20
49.000000873580589
30
0
11
35.300000000000011
21
47.500000873580603
31
0
0
LINE
5
137
100
AcDbEntity
8
0
100
AcDbLine
10
15.300000000000011
20
49.000000873580589
30
0
11
11.729285785728578
21
49.000000873580589
31
0
0
ARC
5
138
100
AcDbEntity
8
0
100
AcDbCircle
10
15.300000000000011
20
52.500000873580603
30
0
40
5
210
-0
220
0
230
1
100
AcDbArc
50
-90
51
90
0
LINE
5
139
100
AcDbEntity
8
0
100
AcDbLine
10
15.300000000000011
20
49.000000873580589
30
0
11
15.300000000000011
21
47.500000873580603
31
0
0
LINE
5
140
100
AcDbEntity
8
0
100
AcDbLine
10
35.300000000000011
20
56.000000873580618
30
0
11
31.729285785728578
21
56.000000873580618
31
0
0
LINE
5
141
100
AcDbEntity
8
0
100
AcDbLine
10
15.300000000000011
20
56.000000873580618
30
0
11
11.729285785728578
21
56.000000873580618
31
0
0
ARC
5
142
100
AcDbEntity
8
0
100
AcDbCircle
10
35.300000000000011
20
52.500000873580603
30
0
40
5
210
-0
220
0
230
1
100
AcDbArc
50
-90
51
90
0
LINE
5
143
100
AcDbEntity
8
0
100
AcDbLine
10
35.300000000000011
20
49.000000873580589
30
0
11
31.729285785728578
21
49.000000873580589
31
0
0
LWPOLYLINE
5
144
100
AcDbEntity
8
0
100
AcDbPolyline
90
4
70
1
43
0.0
10
16.700002935528744
20
26.000000387430191
10
16.700002935528744
20
34.000000506639481
10
17.000002935528755
20
34.000000506639481
10
17.000002935528755
20
26.000000387430191
0
LWPOLYLINE
5
145
100
AcDbEntity
8
0
100
AcDbPolyline
90
4
70
1
43
0.0
10
26.700002935528744
20
26.000000387430191
10
26.700002935528744
20
34.000000506639481
10
27.000002935528755
20
34.000000506639481
10
27.000002935528755
20
26.000000387430191
0
LWPOLYLINE
5
146
100
AcDbEntity
8
0
100
AcDbPolyline
90
4
70
1
43
0.0
10
36.700002935528744
20
26.000000387430191
10
36.700002935528744
20
34.000000506639481
10
37.000002935528755
20
34.000000506639481
10
37.000002935528755
20
26.000000387430191
0
LWPOLYLINE
5
147
100
AcDbEntity
8
0
100
AcDbPolyline
90
4
70
1
43
0.0
10
46.700002935528744
20
26.000000387430191
10
46.700002935528744
20
34.000000506639481
10
47.000002935528755
20
34.000000506639481
10
47.000002935528755
20
26.000000387430191
0
LWPOLYLINE
5
148
100
AcDbEntity
8
0
100
AcDbPolyline
90
4
70
1
43
0.0
10
56.700002935528744
20
26.000000387430191
10
56.700002935528744
20
34.000000506639481
10
57.000002935528755
20
34.000000506639481
10
57.000002935528755
20
26.000000387430191
0
LWPOLYLINE
5
149
100
AcDbEntity
8
0
100
AcDbPolyline
90
4
70
1
43
0.0
10
66.700002935528744
20
26.000000387430191
10
66.700002935528744
20
34.000000506639481
10
67.000002935528755
20
34.000000506639481
10
67.000002935528755
20
26.000000387430191
0
LWPOLYLINE
5
150
100
AcDbEntity
8
0
100
AcDbPolyline
90
4
70
1
43
0.0
10
76.700002935528744
20
26.000000387430191
10
76.700002935528744
20
34.000000506639481
10
77.000002935528755
20
34.000000506639481
10
77.000002935528755
20
26.000000387430191
0
LWPOLYLINE
5
151
100
AcDbEntity
8
0
100
AcDbPolyline
90
4
70
1
43
0.0
10
86.700002935528744
20
26.000000387430191
10
86.700002935528744
20
34.000000506639481
10
87.000002935528755
20
34.000000506639481
10
87.000002935528755
20
26.000000387430191
0
LWPOLYLINE
5
152
100
AcDbEntity
8
0
100
AcDbPolyline
90
4
70
1
43
0.0
10
96.700002935528744
20
26.000000387430191
10
96.700002935528744
20
34.000000506639481
10
97.000002935528755
20
34.000000506639481
10
97.000002935528755
20
26.000000387430191
0
LWPOLYLINE
5
153
100
AcDbEntity
8
0
100
AcDbPolyline
90
4
70
1
43
0.0
10
107.00000293552876
20
25
10
106.70000293552874
20
25
10
106.70000293552874
20
34.000000506639481
10
107.00000293552876
20
34.000000506639481
0
LWPOLYLINE
5
154
100
AcDbEntity
8
0
100
AcDbPolyline
90
4
70
1
43
0.0
10
116.70000293552874
20
26.000000387430191
10
116.70000293552874
20
34.000000506639481
10
117.00000293552876
20
34.000000506639481
10
117.00000293552876
20
26.000000387430191
0
LWPOLYLINE
5
155
100
AcDbEntity
8
0
100
AcDbPolyline
90
4
70
1
43
0.0
10
126.70000293552874
20
26.000000387430191
10
126.70000293552874
20
34.000000506639481
10
127.00000293552876
20
34.000000506639481
10
127.00000293552876
20
26.000000387430191
0
LWPOLYLINE
5
156
100
AcDbEntity
8
0
100
AcDbPolyline
90
4
70
1
43
0.0
10
136.70000293552874
20
26.000000387430191
10
136.70000293552874
20
34.000000506639481
10
137.00000293552876
20
34.000000506639481
10
137.00000293552876
20
26.000000387430191
0
LINE
5
157
100
AcDbEntity
8
0
100
AcDbLine
10
146.70000293552874
20
34.000000506639481
30
0
11
146.70000293552874
21
26.000000387430191
31
0
0
LWPOLYLINE
5
158
100
AcDbEntity
8
0
100
AcDbPolyline
90
4
70
1
43
0.0
10
156.70000293552874
20
26.000000387430191
10
156.70000293552874
20
34.000000506639481
10
157.00000293552876
20
34.000000506639481
10
157.00000293552876
20
26.000000387430191
0
LWPOLYLINE
5
159
100
AcDbEntity
8
0
100
AcDbPolyline
90
4
70
1
43
0.0
10
166.70000293552874
20
26.000000387430191
10
166.70000293552874
20
34.000000506639481
10
167.00000293552876
20
34.000000506639481
10
167.00000293552876
20
26.000000387430191
0
LWPOLYLINE
5
160
100
AcDbEntity
8
0
100
AcDbPolyline
90
4
70
1
43
0.0
10
176.70000293552874
20
26.000000387430191
10
176.70000293552874
20
34.000000506639481
10
177.00000293552876
20
34.000000506639481
10
177.00000293552876
20
26.000000387430191
0
LWPOLYLINE
5
161
100
AcDbEntity
8
0
100
AcDbPolyline
90
4
70
1
43
0.0
10
186.70000293552874
20
26.000000387430191
10
186.70000293552874
20
34.000000506639481
10
187.00000293552876
20
34.000000506639481
10
187.00000293552876
20
26.000000387430191
0
LWPOLYLINE
5
162
100
AcDbEntity
8
0
100
AcDbPolyline
90
4
70
1
43
0.0
10
196.70000293552874
20
26.000000387430191
10
196.70000293552874
20
34.000000506639481
10
197.00000293552876
20
34.000000506639481
10
197.00000293552876
20
26.000000387430191
0
LWPOLYLINE
5
163
100
AcDbEntity
8
0
100
AcDbPolyline
90
4
70
1
43
0.0
10
236.70000293552874
20
26.000000387430191
10
236.70000293552874
20
34.000000506639481
10
237.00000293552876
20
34.000000506639481
10
237.00000293552876
20
26.000000387430191
0
ARC
5
164
100
AcDbEntity
8
0
100
AcDbCircle
10
414.30000000000001
20
22.499999126419397
30
0
40
5.0000000000000018
210
-0
220
0
230
1
100
AcDbArc
50
-84.776857431354344
51
118.98399960024176
0
LINE
5
165
100
AcDbEntity
8
0
100
AcDbLine
10
146.70000293552874
20
26.000000387430191
30
0
11
147.00000293552876
21
26.000000387430191
31
0
0
LINE
5
166
100
AcDbEntity
8
0
100
AcDbLine
10
146.70000293552874
20
34.000000506639481
30
0
11
147.00000293552876
21
34.000000506639481
31
0
0
LINE
5
167
100
AcDbEntity
8
0
100
AcDbLine
10
106.70000293552874
20
26.000000387430191
30
0
11
107.00000293552876
21
26.000000387430191
31
0
0
LINE
5
168
100
AcDbEntity
8
0
100
AcDbLine
10
420
20
0
30
0
11
413.837855209346
21
18.8489133282804
31
0
0
LINE
5
169
100
AcDbEntity
8
0
100
AcDbLine
10
411.5590497825051
20
25.819376931746277
30
0
11
406.92307681969459
21
40
31
0
0
LINE
5
170
100
AcDbEntity
8
0
100
AcDbLine
10
411.87717322327222
20
26.87377443042978
30
0
11
412.14604122136228
21
25.999999126419397
31
0
0
LINE
5
171
100
AcDbEntity
8
0
100
AcDbLine
10
414.30000000000001
20
18.9999991264194
30
0
11
414.75517412232392
21
17.520760578371444
31
0
0
LINE
5
172
100
AcDbEntity
8
0
100
AcDbLine
10
412.14604122136228
20
25.999999126419397
30
0
11
411.5590497825051
21
25.819376931746277
31
0
0
LINE
5
173
100
AcDbEntity
8
0
100
AcDbLine
10
414.30000000000001
20
18.9999991264194
30
0
11
413.837855209346
21
18.8489133282804
31
0
0
LINE
5
174
100
AcDbEntity
8
0
100
AcDbLine
10
338.19462026494602
20
255.00000000000006
30
0
11
81.805379735053975
21
255
31
0
0
LWPOLYLINE
5
175
100
AcDbEntity
8
0
100
AcDbPolyline
90
4
70
1
43
0.0
10
395.11133511924271
20
53.583154330608558
10
395.11133511924271
20
51.583154300806235
10
393.11133508944039
20
51.583154300806235
10
393.11133508944039
20
53.583154330608558
0
LWPOLYLINE
5
176
100
AcDbEntity
8
0
100
AcDbPolyline
90
4
70
1
43
0.0
10
227.35443454299559
20
29.002074490022729
10
225.35443451319327
20
29.002074490022729
10
225.35443451319327
20
31.002074519825051
10
227.35443454299559
20
31.002074519825051
0
LINE
5
177
100
AcDbEntity
8
0
100
AcDbLine
10
210.01026463063738
20
49.240631699594708
30
0
11
212.18133153105089
21
46.719746421701245
31
0
0
ARC
5
178
100
AcDbEntity
8
0
100
AcDbCircle
10
208.97607466748372
20
45.740631699594701
30
0
40
1.5003848871270089
210
0
220
0
230
1
100
AcDbArc
50
139.26391850041875
51
313.5733876749332
0
LINE
5
179
100
AcDbEntity
8
0
100
AcDbLine
10
210.01026463063738
20
49.240631699594708
30
0
11
207.83919773022387
21
46.719746421701245
31
0
0
ARC
5
180
100
AcDbEntity
8
0
100
AcDbCircle
10
211.04445459379099
20
45.740631699594701
30
0
40
1.5003848871269623
210
0
220
0
230
1
100
AcDbArc
50
-133.57338767493164
51
40.736081499579846
0
LINE
5
181
100
AcDbEntity
8
0
100
AcDbLine
10
210.01026463063738
20
49.240631699594708
30
0
11
212.18133153105089
21
46.719746421701245
31
0
0
ARC
5
182
100
AcDbEntity
8
0
100
AcDbCircle
10
208.97607466748372
20
45.740631699594701
30
0
40
1.5003848871270089
210
0
220
0
230
1
100
AcDbArc
50
139.26391850041875
51
313.5733876749332
0
ARC
5
183
100
AcDbEntity
8
0
100
AcDbCircle
10
211.04445459379099
20
45.740631699594701
30
0
40
1.5003848871269623
210
0
220
0
230
1
100
AcDbArc
50
-133.57338767493164
51
40.736081499579846
0
LINE
5
184
100
AcDbEntity
8
0
100
AcDbLine
10
210.01026463063738
20
49.240631699594708
30
0
11
207.83919773022387
21
46.719746421701245
31
0
0
ARC
5
185
100
AcDbEntity
8
0
100
AcDbCircle
10
402.82947736100948
20
20.069098030190577
30
0
40
1.5003848871270031
210
0
220
0
230
1
100
AcDbArc
50
139.26391850041907
51
313.57338767493309
0
LINE
5
186
100
AcDbEntity
8
0
100
AcDbLine
10
403.86366732416315
20
23.569098030190574
30
0
11
406.03473422457671
21
21.048212752297111
31
0
0
ARC
5
187
100
AcDbEntity
8
0
100
AcDbCircle
10
402.82947736100948
20
20.069098030190577
30
0
40
1.5003848871270031
210
0
220
0
230
1
100
AcDbArc
50
139.26391850041907
51
313.57338767493309
0
LINE
5
188
100
AcDbEntity
8
0
100
AcDbLine
10
403.86366732416315
20
23.569098030190574
30
0
11
406.03473422457671
21
21.048212752297111
31
0
0
LINE
5
189
100
AcDbEntity
8
0
100
AcDbLine
10
403.86366732416315
20
23.569098030190574
30
0
11
401.69260042374964
21
21.048212752297111
31
0
0
LINE
5
190
100
AcDbEntity
8
0
100
AcDbLine
10
403.86366732416315
20
23.569098030190574
30
0
11
401.69260042374964
21
21.048212752297111
31
0
0
ARC
5
191
100
AcDbEntity
8
0
100
AcDbCircle
10
404.89785728731675
20
20.069098030190577
30
0
40
1.5003848871269623
210
0
220
0
230
1
100
AcDbArc
50
-133.57338767493152
51
40.736081499578127
0
ARC
5
192
100
AcDbEntity
8
0
100
AcDbCircle
10
404.89785728731675
20
20.069098030190577
30
0
40
1.5003848871269623
210
0
220
0
230
1
100
AcDbArc
50
-133.57338767493152
51
40.736081499578127
0
LINE
5
193
100
AcDbEntity
8
0
100
AcDbLine
10
225.37728042924834
20
13.133488071912581
30
0
11
228.37728047395183
21
13.133488071912581
31
0
0
LWPOLYLINE
5
194
100
AcDbEntity
8
0
100
AcDbPolyline
90
3
70
1
43
0.0
10
225.37728042924834
20
13.133488071912581
10
228.37728047395183
20
13.133488071912581
10
226.87728045160009
20
10.133488027209099
0
LWPOLYLINE
5
195
100
AcDbEntity
8
0
100
AcDbPolyline
90
3
70
1
43
0.0
10
24.180186959797574
20
53.184444066580269
10
27.180187004501057
20
53.184444066580269
10
25.680186982149316
20
50.1844440218768
0
LINE
5
196
100
AcDbEntity
8
0
100
AcDbLine
10
24.180186959797574
20
53.184444066580269
30
0
11
27.180187004501057
21
53.184444066580269
31
0
0
LINE
5
197
100
AcDbEntity
8
0
100
AcDbLine
10
368.19462026494602
20
83.695494530963856
30
0
11
368.19462026494602
21
225.00000000000014
31
0
0
ARC
5
198
100
AcDbEntity
8
0
100
AcDbCircle
10
388.19462026494591
20
83.695494530963799
30
0
40
19.999999999999858
210
0
220
0
230
1
100
AcDbArc
50
180
51
270.00000000000034
0
ARC
5
199
100
AcDbEntity
8
0
100
AcDbCircle
10
338.1946202649462
20
225.00000000000023
30
0
40
29.999999999999858
210
0
220
0
230
1
100
AcDbArc
50
0
51
90.000000000000327
0
LINE
5
200
100
AcDbEntity
8
0
100
AcDbLine
10
420
20
40
30
0
11
420
21
53.695494530963856
31
0
0
ARC
5
201
100
AcDbEntity
8
0
100
AcDbCircle
10
409.99999999999994
20
53.695494530963771
30
0
40
10.000000000000071
210
0
220
-0
230
1
100
AcDbArc
50
0
51
89.999999999999346
0
ARC
5
202
100
AcDbEntity
8
0
100
AcDbCircle
10
10.000000000000014
20
53.695494530963835
30
0
40
10
210
0
220
-0
230
1
100
AcDbArc
50
90.000000000000099
51
180
0
LINE
5
203
100
AcDbEntity
8
0
100
AcDbLine
10
51.80537973505394
20
83.695494530963842
30
0
11
51.805379735053947
21
225
31
0
0
ARC
5
204
100
AcDbEntity
8
0
100
AcDbCircle
10
81.805379735053918
20
225.00000000000003
30
0
40
29.999999999999964
210
0
220
-0
230
1
100
AcDbArc
50
89.999999999999901
51
180
0
ARC
5
205
100
AcDbEntity
8
0
100
AcDbCircle
10
31.805379735053975
20
83.695494530963813
30
0
40
19.999999999999964
210
0
220
0
230
1
100
AcDbArc
50
-90
51
0
0
LINE
5
206
100
AcDbEntity
8
0
100
AcDbLine
10
31.805379735053975
20
63.695494530963842
30
0
11
20.500000305473804
21
63.695494530963835
31
0
0
LINE
5
207
100
AcDbEntity
8
0
100
AcDbLine
10
19.000000283122063
20
63.695494530963835
30
0
11
9.9999999999999982
21
63.695494530963835
31
0
0
LINE
5
208
100
AcDbEntity
8
0
100
AcDbLine
10
9.0000001341104507
20
40
30
0
11
0
21
40
31
0
0
LINE
5
209
100
AcDbEntity
8
0
100
AcDbLine
10
0
20
20
30
0
11
9.0000001341104507
21
20
31
0
0
LINE
5
210
100
AcDbEntity
8
0
100
AcDbLine
10
10.500000156462193
20
20
30
0
11
365
21
20
31
0
0
LINE
5
211
100
AcDbEntity
8
0
100
AcDbLine
10
420
20
40
30
0
11
397.50000592321157
21
40
31
0
0
LINE
5
212
100
AcDbEntity
8
0
100
AcDbLine
10
396.00000590085983
20
40
30
0
11
10.500000156462193
21
40
31
0
0
LINE
5
213
100
AcDbEntity
8
0
100
AcDbLine
10
388.19462026494602
20
63.695494530963934
30
0
11
395.00000588595867
21
63.695494530963906
31
0
0
LINE
5
214
100
AcDbEntity
8
0
100
AcDbLine
10
396.50000590831041
20
63.695494530963899
30
0
11
410.00000000000006
21
63.695494530963842
31
0
0
LWPOLYLINE
5
215
100
AcDbEntity
8
0
100
AcDbPolyline
90
4
70
1
43
0.0
10
217.00000293552876
20
5.9999994933605194
10
216.70000293552874
20
5.9999994933605194
10
216.70000293552874
20
13.999999612569809
10
217.00000293552876
20
13.999999612569809
0
LWPOLYLINE
5
216
100
AcDbEntity
8
0
100
AcDbPolyline
90
4
70
1
43
0.0
10
237.00000293552876
20
13.999999612569809
10
236.70000293552874
20
13.999999612569809
10
236.70000293552874
20
5.9999994933605194
10
237.00000293552876
20
5.9999994933605194
0
LINE
5
217
100
AcDbEntity
8
0
100
AcDbLine
10
111.00933143021877
20
37.675230179325524
30
0
11
111.00933143021877
21
37.106409684208671
31
0
0
LINE
5
218
100
AcDbEntity
8
0
100
AcDbLine
10
122.293820365529
20
35.565283358842649
30
0
11
122.293820365529
21
36.429295883758982
31
0
0
LINE
5
219
100
AcDbEntity
8
0
100
AcDbLine
10
111.00933143021877
20
37.106409684208671
30
0
11
112.29382021651745
21
37.106409684208671
31
0
0
LINE
5
220
100
AcDbEntity
8
0
100
AcDbLine
10
162.29382096157519
20
34.606409646955782
30
0
11
162.29382096157519
21
38.106409699109832
31
0
0
LINE
5
221
100
AcDbEntity
8
0
100
AcDbLine
10
93.29381993339554
20
35.106409654406363
30
0
11
92.793819925944959
21
36.10640966930751
31
0
0
LINE
5
222
100
AcDbEntity
8
0
100
AcDbLine
10
142.10951423732703
20
35.768766892653247
30
0
11
142.84866295189897
21
36.664419034035149
31
0
0
LINE
5
223
100
AcDbEntity
8
0
100
AcDbLine
10
132.46793192425537
20
35.668964861832592
30
0
11
132.46793192425537
21
36.844021895718754
31
0
0
LINE
5
224
100
AcDbEntity
8
0
100
AcDbLine
10
136.99382650480734
20
33.106403664139563
30
0
11
137.29382650480736
21
33.106403664139563
31
0
0
LINE
5
225
100
AcDbEntity
8
0
100
AcDbLine
10
86.993826504807629
20
33.106403664139563
30
0
11
87.29382650480764
21
33.106403664139563
31
0
0
LINE
5
226
100
AcDbEntity
8
0
100
AcDbLine
10
142.84866295189897
20
34.765636494305596
30
0
11
142.10951423732703
21
35.768766892653247
31
0
0
LINE
5
227
100
AcDbEntity
8
0
100
AcDbLine
10
96.993826504807572
20
33.106403664139563
30
0
11
97.293826504807555
21
33.106403664139563
31
0
0
LINE
5
228
100
AcDbEntity
8
0
100
AcDbLine
10
102.79382007495649
20
35.606409661856929
30
0
11
100.79382004515416
21
35.606409661856929
31
0
0
LINE
5
229
100
AcDbEntity
8
0
100
AcDbLine
10
141.75845053792091
20
37.564131173570686
30
0
11
142.84866295189897
21
38.097462460246078
31
0
0
LINE
5
230
100
AcDbEntity
8
0
100
AcDbLine
10
120.57911958140741
20
36.947703398708697
30
0
11
120.92472459137392
21
37.673473919638369
31
0
0
LINE
5
231
100
AcDbEntity
8
0
100
AcDbLine
10
70.273080009647117
20
37.403302946211227
30
0
11
70.847976621309982
21
36.138530400552881
31
0
0
LINE
5
232
100
AcDbEntity
8
0
100
AcDbLine
10
72.364819219774375
20
36.673626477562195
30
0
11
71.878368240675016
21
38.132979414860259
31
0
0
LINE
5
233
100
AcDbEntity
8
0
100
AcDbLine
10
120.57911958140741
20
35.565283358842649
30
0
11
122.293820365529
21
35.565283358842649
31
0
0
LINE
5
234
100
AcDbEntity
8
0
100
AcDbLine
10
120.92472459137392
20
36.429295883758982
30
0
11
120.57911958140741
21
36.947703398708697
31
0
0
LINE
5
235
100
AcDbEntity
8
0
100
AcDbLine
10
120.92472459137392
20
37.673473919638369
30
0
11
122.03066062326675
21
37.310588659173533
31
0
0
LINE
5
236
100
AcDbEntity
8
0
100
AcDbLine
10
163.29382097647635
20
36.10640966930751
30
0
11
162.29382096157519
21
34.606409646955782
31
0
0
LINE
5
237
100
AcDbEntity
8
0
100
AcDbLine
10
130.84358837741277
20
38.295562937578076
30
0
11
130.84358837741277
21
35.599843859839297
31
0
0
LINE
5
238
100
AcDbEntity
8
0
100
AcDbLine
10
92.293819918494378
20
36.606409676758091
30
0
11
91.293819903593217
21
35.106409654406363
31
0
0
LINE
5
239
100
AcDbEntity
8
0
100
AcDbLine
10
90.793819896142651
20
37.606409691659252
30
0
11
92.490787661747063
21
36.901861291637118
31
0
0
LINE
5
240
100
AcDbEntity
8
0
100
AcDbLine
10
61.793819464009168
20
36.10640966930751
30
0
11
60.793819449108014
21
35.106409654406363
31
0
0
LINE
5
241
100
AcDbEntity
8
0
100
AcDbLine
10
100.79382004515416
20
35.606409661856929
30
0
11
102.29382006750591
21
38.106409699109832
31
0
0
LINE
5
242
100
AcDbEntity
8
0
100
AcDbLine
10
80.933045538427677
20
34.647570963736243
30
0
11
82.293819769482823
21
34.647570963736243
31
0
0
LINE
5
243
100
AcDbEntity
8
0
100
AcDbLine
10
142.84866295189897
20
38.097462460246078
30
0
11
144.03092377852306
21
37.564131173570686
31
0
0
LINE
5
244
100
AcDbEntity
8
0
100
AcDbLine
10
74.293819650273619
20
36.10640966930751
30
0
11
73.293819635372458
21
35.106409654406363
31
0
0
LINE
5
245
100
AcDbEntity
8
0
100
AcDbLine
10
66.993826504807757
20
33.106403664139563
30
0
11
67.293826504807768
21
33.106403664139563
31
0
0
LINE
5
246
100
AcDbEntity
8
0
100
AcDbLine
10
153.19427677383297
20
38.21452069485025
30
0
11
150.74832829722118
21
37.881003506823191
31
0
0
LINE
5
247
100
AcDbEntity
8
0
100
AcDbLine
10
142.84866295189897
20
36.664419034035149
30
0
11
141.75845053792091
21
37.564131173570686
31
0
0
LINE
5
248
100
AcDbEntity
8
0
100
AcDbLine
10
91.293819903593217
20
35.106409654406363
30
0
11
93.29381993339554
21
35.106409654406363
31
0
0
LINE
5
249
100
AcDbEntity
8
0
100
AcDbLine
10
82.293819769482823
20
34.647570963736243
30
0
11
82.61343266885639
21
35.606409661856929
31
0
0
LINE
5
250
100
AcDbEntity
8
0
100
AcDbLine
10
82.293819769482823
20
38.106409699109832
30
0
11
80.793819747131124
21
37.106409684208671
31
0
0
LINE
5
251
100
AcDbEntity
8
0
100
AcDbLine
10
82.61343266885639
20
35.606409661856929
30
0
11
81.543819758306967
21
36.307861639208227
31
0
0
LINE
5
252
100
AcDbEntity
8
0
100
AcDbLine
10
80.793819747131124
20
37.106409684208671
30
0
11
80.293819739680544
21
35.606409661856929
31
0
0
LINE
5
253
100
AcDbEntity
8
0
100
AcDbLine
10
132.46793192425537
20
36.844021895718754
30
0
11
130.29382048473823
21
36.844021895718754
31
0
0
LINE
5
254
100
AcDbEntity
8
0
100
AcDbLine
10
152.19204051200239
20
34.822291187371377
30
0
11
151.03659328264445
21
35.898957923818443
31
0
0
LINE
5
255
100
AcDbEntity
8
0
100
AcDbLine
10
153.19529815278256
20
35.898957923818443
30
0
11
152.19204051200239
21
34.822291187371377
31
0
0
LINE
5
256
100
AcDbEntity
8
0
100
AcDbLine
10
146.99382650480729
20
34.106404051569754
30
0
11
147.2938265048073
21
34.106404051569754
31
0
0
LINE
5
257
100
AcDbEntity
8
0
100
AcDbLine
10
144.21005420679941
20
35.768766892653247
30
0
11
142.84866295189897
21
34.765636494305596
31
0
0
LINE
5
258
100
AcDbEntity
8
0
100
AcDbLine
10
92.793819925944959
20
36.10640966930751
30
0
11
93.29381993339554
21
38.106409699109832
31
0
0
LINE
5
259
100
AcDbEntity
8
0
100
AcDbLine
10
146.99382650480729
20
33.106403664139563
30
0
11
147.2938265048073
21
33.106403664139563
31
0
0
LINE
5
260
100
AcDbEntity
8
0
100
AcDbLine
10
151.03659328264445
20
35.898957923818443
30
0
11
153.19427677383297
21
38.21452069485025
31
0
0
LINE
5
261
100
AcDbEntity
8
0
100
AcDbLine
10
76.9938265048077
20
33.106403664139563
30
0
11
77.293826504807711
21
33.106403664139563
31
0
0
LINE
5
262
100
AcDbEntity
8
0
100
AcDbLine
10
156.9938265048072
20
33.106403664139563
30
0
11
157.29382650480721
21
33.106403664139563
31
0
0
LINE
5
263
100
AcDbEntity
8
0
100
AcDbLine
10
166.99382650480715
20
33.106403664139563
30
0
11
167.29382650480716
21
33.106403664139563
31
0
0
LINE
5
264
100
AcDbEntity
8
0
100
AcDbLine
10
112.36964930980911
20
38.244050674442306
30
0
11
111.00933143021877
21
37.675230179325524
31
0
0
LINE
5
265
100
AcDbEntity
8
0
100
AcDbLine
10
56.993826504807828
20
33.106403664139563
30
0
11
57.293826504807839
21
33.106403664139563
31
0
0
LINE
5
266
100
AcDbEntity
8
0
100
AcDbLine
10
81.543819758306967
20
36.307861639208227
30
0
11
80.933045538427677
21
35.957135650532578
31
0
0
LINE
5
267
100
AcDbEntity
8
0
100
AcDbLine
10
116.9938265048074
20
33.106403664139563
30
0
11
117.29382650480741
21
33.106403664139563
31
0
0
LINE
5
268
100
AcDbEntity
8
0
100
AcDbLine
10
80.293819739680544
20
35.606409661856929
30
0
11
80.933045538427677
21
34.647570963736243
31
0
0
LINE
5
269
100
AcDbEntity
8
0
100
AcDbLine
10
64.54901670160956
20
36.139168749702847
30
0
11
63.130114199040399
21
34.821616425888635
31
0
0
LINE
5
270
100
AcDbEntity
8
0
100
AcDbLine
10
93.29381993339554
20
38.106409699109832
30
0
11
90.793819896142651
21
37.606409691659252
31
0
0
LINE
5
271
100
AcDbEntity
8
0
100
AcDbLine
10
73.293819635372458
20
35.106409654406363
30
0
11
73.293819635372458
21
37.549238239941033
31
0
0
LINE
5
272
100
AcDbEntity
8
0
100
AcDbLine
10
71.878368240675016
20
38.132979414860259
30
0
11
70.273080009647117
21
37.403302946211227
31
0
0
LINE
5
273
100
AcDbEntity
8
0
100
AcDbLine
10
112.94547841055135
20
36.307903694109726
30
0
11
112.94547841055135
21
37.106409684208671
31
0
0
LINE
5
274
100
AcDbEntity
8
0
100
AcDbLine
10
112.94547841055135
20
37.106409684208671
30
0
11
112.36964930980911
21
38.244050674442306
31
0
0
LINE
5
275
100
AcDbEntity
8
0
100
AcDbLine
10
122.293820365529
20
36.429295883758982
30
0
11
120.92472459137392
21
36.429295883758982
31
0
0
LINE
5
276
100
AcDbEntity
8
0
100
AcDbLine
10
106.99382650480746
20
33.106403664139563
30
0
11
107.29382650480747
21
33.106403664139563
31
0
0
LINE
5
277
100
AcDbEntity
8
0
100
AcDbLine
10
60.793819449108014
20
35.106409654406363
30
0
11
60.793819449108014
21
37.606409691659252
31
0
0
LINE
5
278
100
AcDbEntity
8
0
100
AcDbLine
10
126.99382650480742
20
33.106403664139563
30
0
11
127.29382650480743
21
33.106403664139563
31
0
0
LINE
5
279
100
AcDbEntity
8
0
100
AcDbLine
10
63.130114199040399
20
34.821616425888635
30
0
11
63.293819486360903
21
37.606409691659252
31
0
0
LINE
5
280
100
AcDbEntity
8
0
100
AcDbLine
10
111.79382020906687
20
35.606409661856929
30
0
11
112.94547841055135
21
36.307903694109726
31
0
0
LINE
5
281
100
AcDbEntity
8
0
100
AcDbLine
10
71.878368240675016
20
35.603434323543567
30
0
11
72.364819219774375
21
36.673626477562195
31
0
0
ENDSEC
0
SECTION
2
OBJECTS
0
DICTIONARY
5
C
100
AcDbDictionary
3
ACAD_GROUP
350
D
3
ACAD_MLINESTYLE
350
17
0
DICTIONARY
5
D
100
AcDbDictionary
0
DICTIONARY
5
1A
330
C
100
AcDbDictionary
0
DICTIONARY
5
17
100
AcDbDictionary
0
ENDSEC
0
EOF
