  0
SECTION
  2
HEADER
  9
$ACADVER
  1
AC1014
  9
$HANDSEED
  5
FFFF
  9
$MEASUREMENT
 70
     1
  0
ENDSEC
  0
SECTION
  2
TABLES
  0
TABLE
  2
VPORT
  5
8
330
0
100
AcDbSymbolTable
 70
     4
  0
VPORT
  5
2E
330
8
100
AcDbSymbolTableRecord
100
AcDbViewportTableRecord
  2
*ACTIVE
 70
     0
 10
0.0
 20
0.0
 11
1.0
 21
1.0
 12
210.0
 22
148.5
 13
0.0
 23
0.0
 14
10.0
 24
10.0
 15
10.0
 25
10.0
 16
0.0
 26
0.0
 36
1.0
 17
0.0
 27
0.0
 37
0.0
 40
341.0
 41
1.24
 42
50.0
 43
0.0
 44
0.0
 50
0.0
 51
0.0
 71
     0
 72
   100
 73
     1
 74
     3
 75
     0
 76
     0
 77
     0
 78
     0
  0
ENDTAB
  0
TABLE
  2
LTYPE
  5
5
330
0
100
AcDbSymbolTable
 70
     1
  0
LTYPE
  5
14
330
5
100
AcDbSymbolTableRecord
100
AcDbLinetypeTableRecord
  2
BYBLOCK
 70
     0
  3

 72
    65
 73
     0
 40
0.0
  0
LTYPE
  5
15
330
5
100
AcDbSymbolTableRecord
100
AcDbLinetypeTableRecord
  2
BYLAYER
 70
     0
  3

 72
    65
 73
     0
 40
0.0
  0
LTYPE
  5
16
330
5
100
AcDbSymbolTableRecord
100
AcDbLinetypeTableRecord
  2
CONTINUOUS
 70
     0
  3
Solid line
 72
    65
 73
     0
 40
0.0
  0
ENDTAB
  0
TABLE
  2
LAYER
  5
2
100
AcDbSymbolTable
 70
3
  0
LAYER
  5
50
100
AcDbSymbolTableRecord
100
AcDbLayerTableRecord
  2
0
 70
0
  6
CONTINUOUS
  0
LAYER
  5
51
100
AcDbSymbolTableRecord
100
AcDbLayerTableRecord
  2
Calque_1
 70
0
  6
CONTINUOUS
  0
LAYER
  5
52
100
AcDbSymbolTableRecord
100
AcDbLayerTableRecord
  2
newlayer
 70
0
  6
CONTINUOUS
  0
ENDTAB
  0
TABLE
  2
STYLE
  5
3
330
0
100
AcDbSymbolTable
 70
     1
  0
STYLE
  5
11
330
3
100
AcDbSymbolTableRecord
100
AcDbTextStyleTableRecord
  2
STANDARD
 70
     0
 40
0.0
 41
1.0
 50
0.0
 71
     0
 42
2.5
  3
txt
  4

  0
ENDTAB
  0
TABLE
  2
VIEW
  5
6
330
0
100
AcDbSymbolTable
 70
     0
  0
ENDTAB
  0
TABLE
  2
UCS
  5
7
330
0
100
AcDbSymbolTable
 70
     0
  0
ENDTAB
  0
TABLE
  2
APPID
  5
9
330
0
100
AcDbSymbolTable
 70
     2
  0
APPID
  5
12
330
9
100
AcDbSymbolTableRecord
100
AcDbRegAppTableRecord
  2
ACAD
 70
     0
  0
ENDTAB
  0
TABLE
  2
DIMSTYLE
  5
A
330
0
100
AcDbSymbolTable
 70
     1
  0
DIMSTYLE
105
27
330
A
100
AcDbSymbolTableRecord
100
AcDbDimStyleTableRecord
  2
ISO-25
 70
     0
  3

  4

  5

  6

  7

 40
1.0
 41
2.5
 42
0.625
 43
3.75
 44
1.25
 45
0.0
 46
0.0
 47
0.0
 48
0.0
140
2.5
141
2.5
142
0.0
143
0.03937007874016
144
1.0
145
0.0
146
1.0
147
0.625
 71
     0
 72
     0
 73
     0
 74
     0
 75
     0
 76
     0
 77
     1
 78
     8
170
     0
171
     3
172
     1
173
     0
174
     0
175
     0
176
     0
177
     0
178
     0
270
     2
271
     2
272
     2
273
     2
274
     3
340
11
275
     0
280
     0
281
     0
282
     0
283
     0
284
     8
285
     0
286
     0
287
     3
288
     0
  0
ENDTAB
  0
TABLE
  2
BLOCK_RECORD
  5
1
330
0
100
AcDbSymbolTable
 70
     1
  0
BLOCK_RECORD
  5
1F
330
1
100
AcDbSymbolTableRecord
100
AcDbBlockTableRecord
  2
*MODEL_SPACE
  0
BLOCK_RECORD
  5
1B
330
1
100
AcDbSymbolTableRecord
100
AcDbBlockTableRecord
  2
*PAPER_SPACE
  0
ENDTAB
  0
ENDSEC
  0
SECTION
  2
BLOCKS
  0
BLOCK
  5
20
330
1F
100
AcDbEntity
  8
0
100
AcDbBlockBegin
  2
*MODEL_SPACE
 70
     0
 10
0.0
 20
0.0
 30
0.0
  3
*MODEL_SPACE
  1

  0
ENDBLK
  5
21
330
1F
100
AcDbEntity
  8
0
100
AcDbBlockEnd
  0
BLOCK
  5
1C
330
1B
100
AcDbEntity
 67
     1
  8
0
100
AcDbBlockBegin
  2
*PAPER_SPACE
  1

  0
ENDBLK
  5
1D
330
1B
100
AcDbEntity
 67
     1
  8
0
100
AcDbBlockEnd
  0
ENDSEC
  0
SECTION
  2
ENTITIES
  0
LWPOLYLINE
  5
100
100
AcDbEntity
  8
newlayer
 62
7
100
AcDbPolyline
 90
31
 70
0
 10
53.972849
 20
178.080779
 30
0.0
 10
53.972849
 20
167.990770
 30
0.0
 10
50.972850
 20
167.990770
 30
0.0
 10
50.972850
 20
158.170763
 30
0.0
 10
53.972849
 20
158.170763
 30
0.0
 10
53.947845
 20
148.104235
 30
0.0
 10
49.135075
 20
144.116362
 30
0.0
 10
43.296191
 20
142.718701
 30
0.0
 10
43.296191
 20
142.718701
 30
0.0
 10
32.716191
 20
142.718701
 30
0.0
 10
32.716191
 20
142.718701
 30
0.0
 10
22.229524
 20
142.718701
 30
0.0
 10
22.229524
 20
142.718701
 30
0.0
 10
11.649524
 20
142.718701
 30
0.0
 10
11.649524
 20
142.718701
 30
0.0
 10
4.837196
 20
144.202710
 30
0.0
 10
0.963312
 20
148.120152
 30
0.0
 10
0.972851
 20
158.170707
 30
0.0
 10
3.972851
 20
158.170707
 30
0.0
 10
3.972851
 20
167.990714
 30
0.0
 10
0.972851
 20
167.990714
 30
0.0
 10
0.972851
 20
178.080722
 30
0.0
 10
11.649515
 20
178.080773
 30
0.0
 10
11.649515
 20
181.080773
 30
0.0
 10
22.229516
 20
181.080773
 30
0.0
 10
22.229516
 20
178.080773
 30
0.0
 10
32.716182
 20
178.080773
 30
0.0
 10
32.716182
 20
181.080773
 30
0.0
 10
43.296182
 20
181.080773
 30
0.0
 10
43.296182
 20
178.080773
 30
0.0
 10
53.972849
 20
178.080773
 30
0.0
  0
LWPOLYLINE
  5
101
100
AcDbEntity
  8
newlayer
 62
7
100
AcDbPolyline
 90
26
 70
0
 10
0.141111
 20
3.544250
 30
0.0
 10
0.141111
 20
11.611394
 30
0.0
 10
0.141111
 20
11.611394
 30
0.0
 10
0.141111
 20
22.191395
 30
0.0
 10
0.141111
 20
22.191395
 30
0.0
 10
0.141111
 20
33.068535
 30
0.0
 10
0.141111
 20
33.068535
 30
0.0
 10
0.141111
 20
43.648536
 30
0.0
 10
0.141111
 20
43.648536
 30
0.0
 10
0.141111
 20
54.525679
 30
0.0
 10
0.141111
 20
54.525679
 30
0.0
 10
0.141111
 20
65.105680
 30
0.0
 10
0.141111
 20
65.105680
 30
0.0
 10
0.141111
 20
75.982823
 30
0.0
 10
0.141111
 20
75.982823
 30
0.0
 10
0.141111
 20
86.562823
 30
0.0
 10
0.141111
 20
86.562823
 30
0.0
 10
0.141111
 20
97.439964
 30
0.0
 10
0.141111
 20
97.439964
 30
0.0
 10
0.141111
 20
108.019965
 30
0.0
 10
0.141111
 20
108.019965
 30
0.0
 10
0.141111
 20
118.897108
 30
0.0
 10
0.141111
 20
118.897108
 30
0.0
 10
0.141111
 20
129.477108
 30
0.0
 10
0.141111
 20
129.477108
 30
0.0
 10
0.141111
 20
137.544250
 30
0.0
  0
LWPOLYLINE
  5
102
100
AcDbEntity
  8
newlayer
 62
7
100
AcDbPolyline
 90
6
 70
0
 10
30.141110
 20
3.544250
 30
0.0
 10
20.431111
 20
3.544250
 30
0.0
 10
20.431111
 20
0.544250
 30
0.0
 10
9.851111
 20
0.544250
 30
0.0
 10
9.851111
 20
3.544250
 30
0.0
 10
0.141111
 20
3.544250
 30
0.0
  0
LWPOLYLINE
  5
103
100
AcDbEntity
  8
newlayer
 62
7
100
AcDbPolyline
 90
26
 70
0
 10
30.141110
 20
137.544250
 30
0.0
 10
30.141110
 20
129.477108
 30
0.0
 10
33.141113
 20
129.477108
 30
0.0
 10
33.141113
 20
118.897108
 30
0.0
 10
30.141110
 20
118.897108
 30
0.0
 10
30.141110
 20
108.019965
 30
0.0
 10
33.141113
 20
108.019965
 30
0.0
 10
33.141113
 20
97.439964
 30
0.0
 10
30.141110
 20
97.439964
 30
0.0
 10
30.141110
 20
86.562823
 30
0.0
 10
33.141113
 20
86.562823
 30
0.0
 10
33.141113
 20
75.982823
 30
0.0
 10
30.141110
 20
75.982823
 30
0.0
 10
30.141110
 20
65.105680
 30
0.0
 10
33.141113
 20
65.105680
 30
0.0
 10
33.141113
 20
54.525679
 30
0.0
 10
30.141110
 20
54.525679
 30
0.0
 10
30.141110
 20
43.648536
 30
0.0
 10
33.141113
 20
43.648536
 30
0.0
 10
33.141113
 20
33.068535
 30
0.0
 10
30.141110
 20
33.068535
 30
0.0
 10
30.141110
 20
22.191395
 30
0.0
 10
33.141113
 20
22.191395
 30
0.0
 10
33.141113
 20
11.611394
 30
0.0
 10
30.141110
 20
11.611394
 30
0.0
 10
30.141110
 20
3.544250
 30
0.0
  0
LWPOLYLINE
  5
104
100
AcDbEntity
  8
newlayer
 62
7
100
AcDbPolyline
 90
6
 70
0
 10
0.141111
 20
137.544250
 30
0.0
 10
9.851111
 20
137.544250
 30
0.0
 10
9.851111
 20
140.544250
 30
0.0
 10
20.431111
 20
140.544250
 30
0.0
 10
20.431111
 20
137.544250
 30
0.0
 10
30.141110
 20
137.544250
 30
0.0
  0
LWPOLYLINE
  5
105
100
AcDbEntity
  8
newlayer
 62
7
100
AcDbPolyline
 90
26
 70
0
 10
34.436344
 20
0.141079
 30
0.0
 10
34.436344
 20
11.588221
 30
0.0
 10
37.436343
 20
11.588221
 30
0.0
 10
37.436343
 20
21.408220
 30
0.0
 10
34.436344
 20
21.408220
 30
0.0
 10
34.436344
 20
33.045365
 30
0.0
 10
37.436343
 20
33.045365
 30
0.0
 10
37.436343
 20
42.865363
 30
0.0
 10
34.436344
 20
42.865363
 30
0.0
 10
34.436344
 20
54.502506
 30
0.0
 10
37.436343
 20
54.502506
 30
0.0
 10
37.436343
 20
64.322507
 30
0.0
 10
34.436344
 20
64.322507
 30
0.0
 10
34.436344
 20
75.959650
 30
0.0
 10
37.436343
 20
75.959650
 30
0.0
 10
37.436343
 20
85.779648
 30
0.0
 10
34.436344
 20
85.779648
 30
0.0
 10
34.436344
 20
97.416791
 30
0.0
 10
37.436343
 20
97.416791
 30
0.0
 10
37.436343
 20
107.236792
 30
0.0
 10
34.436344
 20
107.236792
 30
0.0
 10
34.436344
 20
118.873935
 30
0.0
 10
37.436343
 20
118.873935
 30
0.0
 10
37.436343
 20
128.693933
 30
0.0
 10
34.436344
 20
128.693933
 30
0.0
 10
34.436344
 20
140.141078
 30
0.0
  0
LWPOLYLINE
  5
106
100
AcDbEntity
  8
newlayer
 62
7
100
AcDbPolyline
 90
10
 70
0
 10
87.436345
 20
0.141079
 30
0.0
 10
76.379677
 20
0.141079
 30
0.0
 10
76.379677
 20
3.141079
 30
0.0
 10
66.559678
 20
3.141079
 30
0.0
 10
66.559678
 20
0.141079
 30
0.0
 10
55.313010
 20
0.141079
 30
0.0
 10
55.313010
 20
3.141079
 30
0.0
 10
45.493011
 20
3.141079
 30
0.0
 10
45.493011
 20
0.141079
 30
0.0
 10
34.436344
 20
0.141079
 30
0.0
  0
LWPOLYLINE
  5
107
100
AcDbEntity
  8
newlayer
 62
7
100
AcDbPolyline
 90
26
 70
0
 10
87.436345
 20
140.141078
 30
0.0
 10
87.436345
 20
128.693933
 30
0.0
 10
84.436345
 20
128.693933
 30
0.0
 10
84.436345
 20
118.873935
 30
0.0
 10
87.436345
 20
118.873935
 30
0.0
 10
87.436345
 20
107.236792
 30
0.0
 10
84.436345
 20
107.236792
 30
0.0
 10
84.436345
 20
97.416791
 30
0.0
 10
87.436345
 20
97.416791
 30
0.0
 10
87.436345
 20
85.779648
 30
0.0
 10
84.436345
 20
85.779648
 30
0.0
 10
84.436345
 20
75.959650
 30
0.0
 10
87.436345
 20
75.959650
 30
0.0
 10
87.436345
 20
64.322507
 30
0.0
 10
84.436345
 20
64.322507
 30
0.0
 10
84.436345
 20
54.502506
 30
0.0
 10
87.436345
 20
54.502506
 30
0.0
 10
87.436345
 20
42.865363
 30
0.0
 10
84.436345
 20
42.865363
 30
0.0
 10
84.436345
 20
33.045365
 30
0.0
 10
87.436345
 20
33.045365
 30
0.0
 10
87.436345
 20
21.408220
 30
0.0
 10
84.436345
 20
21.408220
 30
0.0
 10
84.436345
 20
11.588221
 30
0.0
 10
87.436345
 20
11.588221
 30
0.0
 10
87.436345
 20
0.141079
 30
0.0
  0
LWPOLYLINE
  5
108
100
AcDbEntity
  8
newlayer
 62
7
100
AcDbPolyline
 90
10
 70
0
 10
34.436344
 20
140.141078
 30
0.0
 10
45.493011
 20
140.141078
 30
0.0
 10
45.493011
 20
137.141079
 30
0.0
 10
55.313010
 20
137.141079
 30
0.0
 10
55.313010
 20
140.141078
 30
0.0
 10
66.559678
 20
140.141078
 30
0.0
 10
66.559678
 20
137.141079
 30
0.0
 10
76.379677
 20
137.141079
 30
0.0
 10
76.379677
 20
140.141078
 30
0.0
 10
87.436345
 20
140.141078
 30
0.0
  0
LWPOLYLINE
  5
109
100
AcDbEntity
  8
newlayer
 62
7
100
AcDbPolyline
 90
26
 70
0
 10
58.133276
 20
145.215242
 30
0.0
 10
58.133276
 20
153.282384
 30
0.0
 10
55.133277
 20
153.282384
 30
0.0
 10
55.133277
 20
163.862384
 30
0.0
 10
58.133276
 20
163.862384
 30
0.0
 10
58.133276
 20
174.739527
 30
0.0
 10
55.133277
 20
174.739527
 30
0.0
 10
55.133277
 20
185.319528
 30
0.0
 10
58.133276
 20
185.319528
 30
0.0
 10
58.133276
 20
196.196669
 30
0.0
 10
55.133277
 20
196.196669
 30
0.0
 10
55.133277
 20
206.776669
 30
0.0
 10
58.133276
 20
206.776669
 30
0.0
 10
58.133276
 20
217.653812
 30
0.0
 10
55.133277
 20
217.653812
 30
0.0
 10
55.133277
 20
228.233813
 30
0.0
 10
58.133276
 20
228.233813
 30
0.0
 10
58.133276
 20
239.110956
 30
0.0
 10
55.133277
 20
239.110956
 30
0.0
 10
55.133277
 20
249.690957
 30
0.0
 10
58.133276
 20
249.690957
 30
0.0
 10
58.133276
 20
260.568099
 30
0.0
 10
55.133277
 20
260.568099
 30
0.0
 10
55.133277
 20
271.148099
 30
0.0
 10
58.133276
 20
271.148099
 30
0.0
 10
58.133276
 20
279.215244
 30
0.0
  0
LWPOLYLINE
  5
10a
100
AcDbEntity
  8
newlayer
 62
7
100
AcDbPolyline
 90
6
 70
0
 10
88.133276
 20
145.215242
 30
0.0
 10
78.423276
 20
145.215242
 30
0.0
 10
78.423276
 20
142.215242
 30
0.0
 10
67.843276
 20
142.215242
 30
0.0
 10
67.843276
 20
145.215242
 30
0.0
 10
58.133276
 20
145.215242
 30
0.0
  0
LWPOLYLINE
  5
10b
100
AcDbEntity
  8
newlayer
 62
7
100
AcDbPolyline
 90
26
 70
0
 10
88.133276
 20
279.215244
 30
0.0
 10
88.133276
 20
271.148099
 30
0.0
 10
88.133276
 20
271.148099
 30
0.0
 10
88.133276
 20
260.568099
 30
0.0
 10
88.133276
 20
260.568099
 30
0.0
 10
88.133276
 20
249.690957
 30
0.0
 10
88.133276
 20
249.690957
 30
0.0
 10
88.133276
 20
239.110956
 30
0.0
 10
88.133276
 20
239.110956
 30
0.0
 10
88.133276
 20
228.233813
 30
0.0
 10
88.133276
 20
228.233813
 30
0.0
 10
88.133276
 20
217.653812
 30
0.0
 10
88.133276
 20
217.653812
 30
0.0
 10
88.133276
 20
206.776669
 30
0.0
 10
88.133276
 20
206.776669
 30
0.0
 10
88.133276
 20
196.196669
 30
0.0
 10
88.133276
 20
196.196669
 30
0.0
 10
88.133276
 20
185.319528
 30
0.0
 10
88.133276
 20
185.319528
 30
0.0
 10
88.133276
 20
174.739527
 30
0.0
 10
88.133276
 20
174.739527
 30
0.0
 10
88.133276
 20
163.862384
 30
0.0
 10
88.133276
 20
163.862384
 30
0.0
 10
88.133276
 20
153.282384
 30
0.0
 10
88.133276
 20
153.282384
 30
0.0
 10
88.133276
 20
145.215242
 30
0.0
  0
LWPOLYLINE
  5
10c
100
AcDbEntity
  8
newlayer
 62
7
100
AcDbPolyline
 90
6
 70
0
 10
58.133276
 20
279.215244
 30
0.0
 10
67.843276
 20
279.215244
 30
0.0
 10
67.843276
 20
282.215243
 30
0.0
 10
78.423276
 20
282.215243
 30
0.0
 10
78.423276
 20
279.215244
 30
0.0
 10
88.133276
 20
279.215244
 30
0.0
  0
LWPOLYLINE
  5
10d
100
AcDbEntity
  8
newlayer
 62
7
100
AcDbPolyline
 90
6
 70
0
 10
0.166500
 20
186.769648
 30
0.0
 10
0.166500
 20
196.859648
 30
0.0
 10
3.166499
 20
196.859648
 30
0.0
 10
3.166499
 20
206.679649
 30
0.0
 10
0.166500
 20
206.679649
 30
0.0
 10
0.166500
 20
216.769650
 30
0.0
  0
LWPOLYLINE
  5
10e
100
AcDbEntity
  8
newlayer
 62
7
100
AcDbPolyline
 90
10
 70
0
 10
53.166501
 20
186.769648
 30
0.0
 10
42.489834
 20
186.769648
 30
0.0
 10
42.489834
 20
183.769648
 30
0.0
 10
31.909834
 20
183.769648
 30
0.0
 10
31.909834
 20
186.769648
 30
0.0
 10
21.423167
 20
186.769648
 30
0.0
 10
21.423167
 20
183.769648
 30
0.0
 10
10.843167
 20
183.769648
 30
0.0
 10
10.843167
 20
186.769648
 30
0.0
 10
0.166500
 20
186.769648
 30
0.0
  0
LWPOLYLINE
  5
10f
100
AcDbEntity
  8
newlayer
 62
7
100
AcDbPolyline
 90
6
 70
0
 10
53.166501
 20
216.769650
 30
0.0
 10
53.166501
 20
206.679649
 30
0.0
 10
50.166501
 20
206.679649
 30
0.0
 10
50.166501
 20
196.859648
 30
0.0
 10
53.166501
 20
196.859648
 30
0.0
 10
53.166501
 20
186.769648
 30
0.0
  0
LWPOLYLINE
  5
110
100
AcDbEntity
  8
newlayer
 62
7
100
AcDbPolyline
 90
8
 70
0
 10
0.166500
 20
216.769650
 30
0.0
 10
10.843167
 20
216.769650
 30
0.0
 10
10.843167
 20
216.769650
 30
0.0
 10
21.467713
 20
207.352857
 30
0.0
 10
32.071014
 20
207.361775
 30
0.0
 10
42.489834
 20
216.769664
 30
0.0
 10
42.489834
 20
216.769664
 30
0.0
 10
53.166501
 20
216.769664
 30
0.0
  0
ENDSEC
  0
SECTION
  2
OBJECTS
  0
DICTIONARY
  5
C
330
0
100
AcDbDictionary
  3
ACAD_GROUP
350
D
  3
ACAD_MLINESTYLE
350
17
  0
DICTIONARY
  5
D
330
C
100
AcDbDictionary
  0
DICTIONARY
  5
1A
330
C
100
AcDbDictionary
  0
DICTIONARY
  5
17
330
C
100
AcDbDictionary
  3
STANDARD
350
18
  0
DICTIONARY
  5
19
330
C
100
AcDbDictionary
  0
ENDSEC
  0
EOF
